Song name
# A B C D E F G H I J K L M N O P Q R S T U V W X Y Z

Bullets And Octane - The Perfect Bitch chords

Highlighted       Show chord diagrams
pretty easy song but still cool,

intro/chorus
   Eb     Cmin   Ab     Bb   Ab
eb|-0-----4------0------2----0---------------------------------------|
Bb|-0-----5------2------4----2---------------------------------------|
Gb|-1-----6------2------4----2---------------------------------------|
Db|-2-----6------2------4----2---------------------------------------|
Ab|-2-----4------0------2----0---------------------------------------|
Eb|-0----------------------------------------------------------------|

Verse/other bits
   Eb     Ab    Fmin    Ab
eb|-0-----0------2------0--------------------------------------------|
Bb|-0-----2------2------2--------------------------------------------|
Gb|-1-----2------2------2--------------------------------------------|
Db|-2-----2------4------2--------------------------------------------|
Ab|-2-----0------4------0--------------------------------------------|
Eb|-0------------2---------------------------------------------------|

End on Eb,
feel free to leave and comments
Tap to rate this tab
# A B C D E F G H I J K L M N O P Q R S T U V W X Y Z