Song name
# A B C D E F G H I J K L M N O P Q R S T U V W X Y Z

Bullets And Octane - Save Me Sorrow tab

----------------------------------------------------------------------------
		     Save Me Sorrow - Bullets And Octane
----------------------------------------------------------------------------
Tabbed by: Jamie
Submitted by: sam b

Tuning: Standard E (EADGBe)

b  - bend            h  - Hammer On
rb - Release bend    /  - Slide Up
GB - Gradual Bend    \  - Slide Down
~  - Vibrato        \tb - Depress Tremolo Bar
p  - Pull Off

For the rest of the song just go to the other tab on this site as it is 
99% perfect

e|--12-----12-----12---~~----------------------------------------------|
B|--15b17--15b17--15b17~~--17rb15-13-12-12~~~------14b16-14-12---------|
G|-------------------------------------------------------------16~~/\\-|
D|---------------------------------------------------------------------|
A|---------------------------------------------------------------------|
E|---------------------------------------------------------------------|

e|--0--0--0--------------------------------------------------------------|
B|--0--0--0--------------------------------------------------------------|
G|--0--0--0--2-3-3333333(GB)444444444---3b4b3p0--------------------------|
D|--2--2--2--------------------------------------2~~\\-------------------|
A|--2--1--0--------------------------------------------------------------|
E|------------------------------------------------------12\\\\\\--0\tb---|
    ^^^^^^^
 Not sure about
   this part
Tap to rate this tab
 
# A B C D E F G H I J K L M N O P Q R S T U V W X Y Z