Song name
# A B C D E F G H I J K L M N O P Q R S T U V W X Y Z

Bullets Belvedere - Move It tab

-------------------------------------------------------------------------------
			     MOVE IT - Bullets & Belvedere
-------------------------------------------------------------------------------

cover song by technocore band from jersey. signed to InVogue Records

myspace.com/bulletsandbelvedere


|---------------------------------------------------------------------------|
|---------------------------------------------------------------------------|
|---------------------------------------------------------------------------|
|-0~------------------------------------------------------------------------|
|-0~------------------------------------------------------------------------|
|-0~------------------------------------------------------------------------|

|---------------------------------------------------------------------------|
|---------------------------------------------------------------------------|
|---------------------------------------------------------------------------|
|---------------------------------------------------------------------------|
|-0-000-0-000-0-0---0-000-0-000---------------------------------------------|
|-0-000-0-000-0-0---0-000-0-000-3b*-----------------------------------------|
  . ... . ... . .   . ... . ...
|---------------------------------------------------------------------------|
|---------------------------------------------------------------------------|
|---------------------------------------------------------------------------|
|---------------------------------------------------------------------------|
|-0-0-0-07-3-3-2-5-2-5--0-0-0-07-3-3-2-5-2-5--------------------------------|
|-0-0-0-07-3-3-2-5-2-5--0-0-0-07-3-3-2-5-2-5--------------------------------|
  . . . .. . . . . . .  . . . .. . . . . . .

just play that the whole song.

somewhere in the song this is played also:

|---------------------------------------------------------------------------|
|---------------------------------------------------------------------------|
|---------------------------------------------------------------------------|
|---------------------------------------------------------------------------|
|-t5----------------t12----t8----t7-t10-t7-t10------------------------------|
|---------------------------------------------------------------------------|



************************************
| ~   vibrato
| *   harmonic
| .   Mute note
| b   Bend
| t   tremelo picking
************************************
Tap to rate this tab
# A B C D E F G H I J K L M N O P Q R S T U V W X Y Z