Bum - A Promise Is A Promise tab

-------------------------------------------------------------------------------
			 A Promise is a Promise - Bum
-------------------------------------------------------------------------------
Tabbed by:SquishyShoes
Email:

Tuning:Standard

Intro Riff:
e|----------------------------------|
B|----------------------------------|
G|----------------------------------|
D|-----5/777--5/777--5/777--10\9\5--|
A|----------------------------------|
E|----------------------------------|
Play twice (it's not quite right, but sounds close enough)

Verse:
e|--------------|
B|--------------|
G|---------5----|
D|-----7-5-5-5--|
A|-----7-3-3-5--|
E|-----5-1---3--| X4 BUT LEAVE OUT THE LAST CHORD ON THE LAST TIME

Chorus:
e|--------------------------------------------------------|
B|--------------------------------------------------------|
G|--10----10------7-----7-9---7-9--5-----5-----5----------|
D|--10-10-10-10-5-7-9-5-7-9-5-7-9--5-5-3-5-5-3-5-5--------|
A|--8--10-8--10-5-5-9-5-5-7-5-5-7--3-5-3-3-5-3-3-5--------|
E|-----8-----8--3---7-3-----3--------3-1---3-1---3--------|
I'm too lazy to do the strum pattern for the chorus or verse, it's not hard, you can 
figure it out yourself.

Then repeat the whole thing once from the start.

Lyrics:

Did you really think that things would change?
And I would never be the same for you (for you)
And when the people around me try and say
That I should never be this way and I'll forget you, not you

I wait for you
And I wait for you
'Cause they can't change my mind
So it's up to me to find
A way to insure that I'm
back with you

I can't change the way I feel (back with you)
I'll make the things I told you real ('cause for you)
A promise is a promise
And I promised you

Now I know it's hard for you to stay
for so long, so far away 'cause I live here too
Soo-oo-oh
I won't give up, I'll spend the time
'cause I'm sure that in my life
There's only you, there's only you, there's only you

So I'll wait for you
And I'll wait for you
'Cause I can't change my mind
So it's up to me to find
A way that insure that I'm back with you
I can't change the way I feel (back with you)
I'll make the things I told you real (because for you)
A promise is a promise
Tap to rate this tab
 
# A B C D E F G H I J K L M N O P Q R S T U V W X Y Z