Song name
# A B C D E F G H I J K L M N O P Q R S T U V W X Y Z

Bumblefoot - Real tab

Tabbed by: Katar
Email: Jhmmtt666@gmail.com


I finally got the intro tabbed :P

e|---------------------------------------------------------------------------|
B|---------------------------------------------------------------------------|
G|------11h12-----8-------11h12-----8------11h12-----8------11h12----8-------|
D|--10-----------------10---------------10---------------10------------------|
A|------------10-----------------10---------------10--------------10---------|
E|---------------------------------------------------------------------------|



e|---------------------------------------------------------------------------|
B|---------------------------------------------------------------------------|
G|------11h12-----8-------11h12-----8------11h12-----8------11h12----8-------|
D|----9-----------------9----------------9----------------9------------------|
A|------------10-----------------10---------------10--------------10---------|
E|---------------------------------------------------------------------------|


                                                               
e|------------------------------------------------------------------------|---|
B|----------------------------------8-9-8-7-8-----------------------------|---|
G|--------------------------------------------0-7-8--------------------*--|---|
D|-----5---6----5--6--5-6--5--6----------------------10------0/10------*--|---|
A|------------------------------------------------------------------------|---|
E|-----3---4----3--4--3-4--3--4-------------------------------------------|---|



h=hammer
/=slide and tremolo pick
Tap to rate this tab
# A B C D E F G H I J K L M N O P Q R S T U V W X Y Z