Song name
# A B C D E F G H I J K L M N O P Q R S T U V W X Y Z

Bumblefoot - Real tab

Real by Bumblefoot
Tabbed out by Adam Musial
Information found at http://www.bumblefoot.com/forum/index.php
Tab information at the bottom of this page.

e/-------------------| x4
b/----------7h8------|
g/-----------------8-|
d/--------10---------|
a/--------------10---|
e/-------------------|

e/-------------------| x4
b/----------7h8------|
g/-----------------8-|
d/--------9----------|
a/--------------10---|
e/-------------------|

e/---------------------| x4
b/------------8---6----|
g/----------7---6------|
d/--------9------------|
a/---------------------|
e/---------------------|

e/----------------------------------------------|
b/----8-9-8-7-8---------------------------------|
g/----------------7-8-5-------------------------|
d/--------------5--------0-1-2-3-4/6-7/8/9/10---|
a/----------------------------------------------|
e/----------------------------------------------|

e/--------------------| x4
b/----------7h8-------|
g/-----------------8--|
d/--------10----------|
a/--------------10----|
e/--------------------|

e/----------------10-11-8--|
b/----8-9-8-7-8------------|
g/-------------------------|
d/--------------5----------|
a/-------------------------|
e/-------------------------|

e/----------------------------------------------------------------|
b/----------------------------------------------------------------|
g/--------5--5-5--5-5--5--5-5--5-5/--15--15-15--15-15--15--15-15--|
d/--------3--3-3--3-3--3--3-3--3-3/--10--10-10--10-10--10--10-10--|
a/-(10/)----------------------------------------------------------|
e/-(8/)-----------------------------------------------------------|

e/---------------------------------------------|
b/---------------------------------------------|
g/---------------------------------------------|
d/--5--6--5--6--5--6--5--6--5-6-5-4-5----------|
a/--------------------------------------5-6-3--|
e/--3--4--3--4--3--4--3--4------------3--------|

e/----------------------------------------------------------|
b/----------------------------------------------------------|
g/--5--5-5--5-5--5--5-5--5-5/--15--15-15--15-15--15--15-15--|
d/--3--3-3--3-3--3--3-3--3-3/--10--10-10--10-10--10--10-10--|
a/----------------------------------------------------------|
e/----------------------------------------------------------|

e/---------------------------------------------|
b/---------------------------------------------|
g/---------------------------------------------|
d/--5--6--5--6--5--6--5--6--5-6-5-4-5----------|
a/--------------------------------------5-6-3--|
e/--3--4--3--4--3--4--3--4------------3--------|

e/------------------------------------|
b/--9---9--9---9--9---9---------------|
g/--10--10-10--10-10--10--5-7-8--7-5--|
d/------------------------------------|
a/------------------------------------|
e/------------------------------------|

e/------------------------------|
b/--8--8-8--8-8--8--------------|
g/--8--8-8--8-8--8--5-7-8--7-5--|
d/------------------------------|
a/------------------------------|
e/------------------------------|


e/----------------------------(15)-(16)-(15)-(16)-(15)-(16)-(15)-(16)-|
b/--7--7-7--7-7--7-------------8----9----8----9----8----9----8----9---|
g/--7--7-7--7-7--7--5-7-8--7-5----------------------------------------|
d/--------------------------------------------------------------------|
a/--------------------------------------------------------------------|
e/--------------------------------------------------------------------|

e/----------------------------------------------------------|
b/----------------------------------------------------------|
g/--5--5-5--5-5--5--5-5--5-5/--15--15-15--15-15--15--15-15--|
d/--3--3-3--3-3--3--3-3--3-3/--10--10-10--10-10--10--10-10--|
a/----------------------------------------------------------|
e/----------------------------------------------------------|

Speed up^

e/------------------| x4
b/----------7h8-----|
g/---------------8--|
d/--------10--------|
a/-------------10---|
e/------------------|

e/-----------------| x4
b/---------7h8-----|
g/---------------8-|
d/--------9--------|
a/-------------10--|
e/-----------------|

e/-----------------| x4
b/----------8--6---|
g/---------7--6----|
d/--------9--------|
a/-----------------|
e/-----------------|

Then repeat and solo that I can't play... or tab :(

/  - slide
(0)- Ghost notes
x4 - Repeat four times
Tap to rate this tab
# A B C D E F G H I J K L M N O P Q R S T U V W X Y Z