Song name
# A B C D E F G H I J K L M N O P Q R S T U V W X Y Z

Bumblefoot - T-jonez tab

howdy!really good song,just listen to it for the right timing.really easy once you get 
fingering down.well here ya go.i'll write down the lyrics for the first verse when you 
the chord.the timing is the same for all verses


 babe....fade
E|-----| |-------|
B|--7--| |---5---|
G|--8--| |---6---|
D|--8--| |---8---|
A|--x--| |-------|
E|--7--| |-------|

 dream....of.......niii
E|------| |------| |----|
B|--4---| |--2---| |--9-|
G|--4---| |--2---| |--8-|
D|--4---| |--2---| |--x-|
A|--x---| |--x---| |--9-|
E|--4---| |--2---| |--7-|

 ight...high.....eyes
E|---| |--7---| |--7--|
B|-7-| |--7---| |--8--|
G|-8-| |--8---| |--7--|
D|-x-| |--6---| |--9--|
A|-9-| |------| |--7--|
E|-7-| |------| |-----|

piece.....wakeup..each morning..
E|--6---| |--4-| |---4----|
B|--7---| |--4-| |---4----|
G|--6---| |--5-| |---4----|
D|--8---| |--6-| |---6----|
A|--6---| |--6-| |---4----|
E|------| |--4-| |--------|

without..........you.......
E|-------------| |-------|
B|------6------| |---7---|
G|------6------| |---7---|
D|------5------| |---8---|
A|-------------| |---9---|
E|-------------| |-------|

 chorus!just keep playing it over and such
E|----|
B|----|
G|--4-|
D|--4-|
A|--2-|
E|--2-|

el solo


   BM7                             A#dim             Eb
E|----------------------------------------------------------11------|
B|---------------------------------------------14-12-11---------11--|
G|----------------8--9--/11--9--8-----------13----------12----------|
D|--------8-9-11-------------------11-8--14-------------------------|
A|---9-11-----------------------------------------------------------|
E|------------------------------------------------------------------|

    G#m7                       F#m7           B6  B
E|-----------------------------------------15/16--14--10/11------|
B|--12~~-----11-12-14--12--11--------14-17-------------------12--|
G|--------13-------------------14~~------------------------------|
D|---------------------------------------------------------------|
A|---------------------------------------------------------------|
E|---------------------------------------------------------------|

    G#m7       Em7
E|---------14--14-15-12----------------------------------12--|
B|--9--/12--------------14-12----------12-14-15-12-14-15-----|
G|----------------------------14-12-14-----------------------|
D|-----------------------------------------------------------|
A|-----------------------------------------------------------|
E|-----------------------------------------------------------|

    Ebm7                        G#
E|--14-14--16--16-16/18-----18--16~~--16--18--|
B|----------------------16--------------------|
G|--------------------------------------------|
D|--------------------------------------------|
A|--------------------------------------------|
E|--------------------------------------------|

    C#7sus2
E|--19~----19-16-------------------------------------------------------------------------|
B|------18-------18-16----------16--------------------------------------------16-17-19---|
G|---------------------18-16-------16-------------------------------15-16-18-------------|
D|---------------------------18-------18-15-------15-16----15-16-18----------------------|
A|------------------------------------------16-18-------18-------------------------------|
E|---------------------------------------------------------------------------------------|


E|--15~~-19/21--19----------21b(22)-21-----------19~~--|
B|------------------20-19~~------------20-----19-------|
G|-----------------------------------------20----------|
D|-----------------------------------------------------|
A|-----------------------------------------------------|
E|-----------------------------------------------------|
Tap to rate this tab
# A B C D E F G H I J K L M N O P Q R S T U V W X Y Z