Song name
# A B C D E F G H I J K L M N O P Q R S T U V W X Y Z

Bump Of Chicken - Sailing Day tab

Help us improve GuitareTab! Take a short survey!
im keru moshi moshi ..im sorry...it's my 1st tab
INTRO: 

-------6-----------------------------------------------------------------|
-------6-----------------------------------------------------------------|
-------8-----------------------------------------------------------------|
-------8-----------------------------------------------------------------|
-------6-----------------------------------------------------------------|
-------6-----------------------------------------------------------------|


-----6-----6-----6------------------------------------------------------|
-------6-----6-----6---------many times---------------------------------|
---------8-----8-----8--------------------------------------------------|
------------------------------------------------------------------------|
------------------------------------------------------------------------|
------------------------------------------------------------------------|

riff: Bb5 F5 G5 Eb5

its very simple....
Related for Sailing Day tab