Song name
# A B C D E F G H I J K L M N O P Q R S T U V W X Y Z

Bumpin Uglies - Burn My Candle tab

-------------------------------------------------------------------------------
                             Burn my Candle - Bumpin Uglies
-------------------------------------------------------------------------------
Tabbed by:
E-mail: insertnamehere33@aol.com
CAPO ON 2nd FRET (tab relative to capo)
Tuning: Eb Ab Db Gb Bb Eb
intro
e|--0------------------------- 0-----------------------3-----3-3h5-----------|
B|--1--------------------------1----------------------0-3/5--------3\0p0-----|
G|--0-------------------------2-----------------------0----------------------|
D|--2-2-0h2p0----0h2p0---2-----------------------0---------------------------|
A|--3------------3------------0------3-3h5-3\2p0--2--------------------------|
E|--0--------------------------0-3/5------------------3----------------------|

e|--1---------------------------------------------------------0--------------|
B|--1--------(last time)--------------6--------------------1-----------------|
G|--2---------------------------4-5/7-----------------------0----------------|
D|--3----------------------3/5------------------------------2----------------|
A|--3--------------------------------------------------------3---------------|
E|--1--------------------------------------------------------0---------------|
verse
e|--0----------------0------------------------3--------------------1---------|
B|--1----------------1------------------------3--------------------1---------|
G|--0----------------2------------------------0--------------------2---------|
D|--2----------------2------------------------0--------------------3---------|
A|--3----------------0------------------------2--------------------3---------|
E|--0----------------0------------------------3--------------------1---------|
chorus
e|--1----------0----------------0----------------0----------------3----------|
B|--1----------1----------------1----------------0----------------3----------|
G|--2----------0----------------2----------------0----------------0----------|
D|--3----------2----------------2----------------2----------------0----------|
A|--3----------3----------------0----------------2----------------2----------|
E|--1----------0----------------0----------------0----------------3----------|

e|--1----------0----------------0----------------1----------------3----------|
B|--1----------1----------------0----------------1----------------3----------|
G|--2----------2----------------0----------------2----------------0----------|
D|--3----------2----------------2----------------3----------------0----------|
A|--3----------0----------------2----------------3----------------2----------|
E|--1----------0----------------0----------------1----------------3----------|

************************************

| /   slide up
| \   slide down
| h   hammer-on
| p   pull-off
| ~   vibrato
| +   harmonic
| x   Mute note
| b   Bend
| pb  Pre-bend
| br  Bend release
| pbr Pre-bend release
| brb Bend release bend

************************************
Tap to rate this tab
# A B C D E F G H I J K L M N O P Q R S T U V W X Y Z