Song name
# A B C D E F G H I J K L M N O P Q R S T U V W X Y Z

Bunkface - Revolusi tab

Band: Bunkface
Song: Revolusi
Tuning: standard

Note: My version of Revolusi. Hopefully there's no debate between my tab and the
other tabs here. This is just my version. Comment and rate. Enjoy!

.... = Palm Mute
/ = Slide up
\ = Slide down
~ = Vibrato
>>>> = Strum


INTRO:

Guitar 2
e|---------------------------------|
B|---------------------------------|
G|---------------------------------|
D|--0-0-4-0-0-0-4-0-0-0-4-0-0-0-4--| x2
A|---------------------------------|
E|---------------------------------|

Guitar 1
e|---------------------|
B|---------------------|
G|-/-7-77777777777777--|
D|-/-7-77777777777777--|
A|-/-5-55555555555555--|
E|---------------------|
       ........


INTRO PART 2:

Guitar 1(x2) Guitar 2(x1)
e|-----------------------------------------------|    |--x-x-x-x----|
B|-----------------------------------------------|    |--x-x-x-x----|
G|--------7--7-------------------7--7--9-9-------|    |--x-x-x-x----|
D|--9-7-9-7--7--5-5--7-7---9-7-9-7--7--9-9--7-7--|    |--x-x-x-x----|
A|--9-7-9-5--5--5-5--7-7---9-7-9-5--5--7-7--7-7--| x2 |--x-x-x-x----|
E|--7-5-7-------3-3--5-5---7-5-7------------5-5--|    |--x-x-x-x----|

Guitar 2
e|------------------------------------------------x-x-x-x-------------|
B|------------------------------------------------x-x-x-x-------------|
G|--119-1112--119-7-9-119-999--12121212-14141414--x-x-x-x-------------|
D|------------------------------------------------x-x-x-x-------------|
A|--9-7-9-10--9-7-5-7-9-7-777--10101010-12121212--x-x-x-x-------------|
E|------------------------------------------------x-x-x-x-------------|


INTRO PART 3:

Guitar 1
e|---2--2--2--2--2--2--2--------|
B|---3--3--3--3--3--3--3--------|
G|---4--4--4--4--4--4--4---2-2--|
D|---4--4--4--4--4--4--4---2-2--|
A|-------------------------0-0--|
E|------------------------------|

Guitar 2
e|-----------------------------------|
B|-----------------------------------|
G|---4~~~-------------------2-2--4\--|
D|---4~~~-------------------2-2--4\--|
A|---2~~~-------------------0-0--2\--|
E|-----------------------------------|


VERSE:

Guitar 1 x2 (no guitar 2)
e|---2-xx-2-xx-2-xx-2--------------------------|
B|---3-xx-3-xx-3-xx-3--7-xx-7-xx-7-xx-7--------|
G|---4-xx-4-xx-4-xx-4--7-xx-7-xx-7-xx-7--------|
D|---4-xx-4-xx-4-xx-4--7-xx-7-xx-7-xx-7--------|
A|---------------------------------------------|
E|---------------------------------------------|

e|---------------------------------------------|
B|---3-xx-3-xx-3-xx-3--5-xx-5-xx-5-xx-5--------|
G|---4-xx-4-xx-4-xx-4--6-xx-6-xx-6-xx-6--------|
D|---5-xx-5-xx-5-xx-5--7-xx-7-xx-7-xx-7--7-7---|
A|---------------------------------------7-7---|
E|---------------------------------------5-5---|

Guitar 2
e|-------------------|
B|-------------------|
G|--------16>>>>-----|
D|--7-7--------------|
A|--7-7---14>>>>-----|
E|--5-5--------------|


PRECHORUS:

Guitar 1
e|----------------------------------------------------------------------|
B|-3-3-5-5-7-7-7-7-----7-7-5-5-3-3-3-3------3-3-5-5-7-7-7-7------5~~~---|
G|-4-4-6-6-7-7-7-7-----7-7-6-6-4-4-4-4------4-4-6-6-7-7-7-7------6~~~---|
D|-5-5-7-7-9-9-9-9-----7-7-7-7-5-5-5-5------5-5-7-7-9-9-9-9------7~~~---|
A|-5-5-7-7-9-9-9-9-----5-5-7-7-5-5-5-5------5-5-7-7-9-9-9-9------7~~~---|
E|----------------------------------------------------------------------|

Guitar 2
e|--------------------------------------------------------------------------|
B|----------------------------------------------~~~-------------------------|
G|--------------------------------------------------------------------------|
D|-5-5-7-7-9-9/12\9-7--12-12-7-7-5/7/9\7\5--5-5-7-7-9-9/12\9-7-------7~~~~--|
A|-------------------------------------------------------------10-8---------|
E|--------------------------------------------------------------------------|

Guitar 1                 Guitar 2
e|----------------------|--------------------------|
B|----------------------|--------------------------|
G|----------------------|---12-12------14-14-------|
D|---5-5-xxxx-7-7-xxxx--|---------xxxx-------xxxx--|
A|---5-5-xxxx-7-7-xxxx--|---10-10-xxxx-12-12-xxxx--|
E|---3-3-xxxx-5-5-xxxx--|---------xxxx-------xxxx--|


CHORUS:

Guitar 1
e|-------------------------------|------------|
B|-------------------------------|----3-2-3---|
G|-------------7777--------------|--4---------|
D|---9999-5555-7777-7777---------|------------|
A|---9999-5555-5555-7777---(x2)--|------------|
E|---7777-3333------5555---------|------------|

Guitar 2
e|-------------------------------------------------|-------------|
B|-------------------------------------------------|-------------|
G|---11111111-12-12-12-12--1111111--9-9-9-9--------|-------------|
D|-------------------------------------------------|--9~~~--7-7--|
A|---9-9-9-9--10-10-10-10--9-9-9-9--7-7-7-7---(x2)-|--9~~~--7-7--|
E|-------------------------------------------------|--7~~~--5-5--|


VERSE 2: PALM MUTE

Guitar 1
e|------------------------------------|---------|------------|
B|-----3-2-3---3-2-3---3-2-3---3-2-3--|--3---2--|--32323/55--|
G|---4-------4-------4-------4--------|---------|------------|
D|------------------------------------|---------|------------|
A|------------------------------------|---------|------------|
E|------------------------------------|---------|------------|

Guitar 2
e|----------------|
B|----------------|
G|------7---------|
D|---9--7--5--7---|
A|---9--5--5--7---|
E|---7-----3--5---|


PRECHORUS

CHORUS


BRIDGE:

Guitar 1(x3) Guitar 2(x1)
e|----------------|
B|----------------|
G|----------------|
D|---9--7--5--7---|
A|---9--7--5--7---|
E|---7--5--3--5---|

Guitar 2: PALM MUTE
e|------------------------------------|
B|-----3-2-3---3-2-3---3-2-3---3-2-3--|
G|---4-------4-------4-------4--------|
D|------------------------------------|
A|------------------------------------|
E|------------------------------------|


SOLO:

Guitar 1
e|-----------------------|----------------------------------------------|
B|-----------------------|----------------------------------------------|
G|-----------------------|---------7------------------------------------|
D|---5-555555-77777777---|---9--5--7--7---9--4--5--77-xxxx-77-xxxx-77---|
A|---5-555555-77777777---|---9--5--5--7---9--4--5--77-xxxx-77-xxxx-77---|
E|---3-333333-55555555---|---7--3-----5---7--2--3--55-xxxx-55-xxxx-55---|
       ...... ....

Guitar 2
e|-------------------------------------------------------------|
B|------------------------------------------101010--12b14-12---|
G|--------6666-7777-9999-111111111-12121212--------------------|
D|---9999------------------------------------------------------|
A|-------------------------------------------------------------|
E|-------------------------------------------------------------|

e|---------12b14-12~~--14-12-11-----12-10-9-----10-9--------10-9----------|
B|---12-14----------------------14----------12-------12-11-------12-10----|
G|------------------------------------------------------------------------|
D|------------------------------------------------------------------------|
A|------------------------------------------------------------------------|
E|------------------------------------------------------------------------|

e|---7~-7~-7~-7~--9~-9~-9~-9~--10~-10~-10~-10~--1212--1212--1212------|
B|--------------------------------------------------------------------|
G|--------------------------------------------------------------------|
D|--------------------------------------------------------------------|
A|--------------------------------------------------------------------|
E|--------------------------------------------------------------------|


Guitar 1/2
e|----------0~----|
B|----------0~----|
G|---Drums--0~----|
D|---Drums--0~----|
A|---Drums--------|
E|----------------|


CHORUS X4

INTRO PART 3

END.

TERIMA KASIH.
Tap to rate this tab
 
# A B C D E F G H I J K L M N O P Q R S T U V W X Y Z