Song name
# A B C D E F G H I J K L M N O P Q R S T U V W X Y Z

Bunkface - Situasi tab

E----------------             E------------------------|
B----------------   repeat    B------------------------|    repeat
G-4-4------------     2       G-7-7------------      2-|
D-4-4-4-4-5-5-7-7    kali     D-7-7-4-4-5-5-7-7--------|     kali
A-2-2-4-4-5-5-7-7             A-5-5-4-4-5-5-7-7--------|
E-----2-2-3-3-5-5             E-----2-2-3-3-5-5--------|

diskriminasi mnjatuhkn        dan aku , kulayu
aku
reputasi kini mnjd bisu       oh oh disitu

E---------------------|
B---------------------|
G---------------------|
D-5-7-5-7-7-7-7-7-7-7-|
A-5-7-5-7-7-7-7-7-7-7-|
E-3-5-3-5-5-5-5-5-5-5-|

mengharapkan sesuatu yang baru
itulah impian aku

E---------            E-----------|
B---------            B-----------|
G-7-7-7-7-            G-----------|
D-7-7-7-7-            D-7-7-7-7---|
A-5-5-5-5-            A-7-7-7-7---|
E---------            E-5-5-5-5---|

dan...bila kau        ng...musnahlah musnah
menghila-               impi-

E-----------          E--------         E---------|
B-----------          B--------         B---------|
G-----------          G--------         G---------|
D-9-9-9-9---          D--5-5-5-         D-7-7-7-7-|
A-9-9-9-9---          A--5-5-5-         A-7-7-7-7-|
E-7-7-7-7---          E--3-3-3-         E-5-5-5-5-|

an tuk mnggapai       ng                Terangi hidup-
binta-

E-------------        E------------|
B---------            B------------|
G-7-7-7-7-            G------------|
D-7-7-7-7-            D-7-7-7-7----|
A-5-5-5-5-            A-7-7-7-7----|
E---------            E-5-5-5-5----|

ku kumahu kau ta-      hu..engkaulah
                        destinasi

E-----------          E--------|
B-----------          B--------|
G-----------          G--------|
D-9-9-9-9---          D--5-5-5-|
A-9-9-9-9---          A--5-5-5-|
E-7-7-7-7---          E--3-3-3-|

ku dalam ingatan       ku..oh oh oh

"kerna diri ini " smpi "disitu" sameje mcm "diskriminasi"

maen dulu baru tau


                                                   arezeem17 tab
Tap to rate this tab
 
# A B C D E F G H I J K L M N O P Q R S T U V W X Y Z