Song name
# A B C D E F G H I J K L M N O P Q R S T U V W X Y Z

Bunkface - Prom Queen tab

Assalamualaikum…

Band	: Bunkface	
Song	: Prom Queen
Tuning	: Standard

One of the best from bunkface! I had a hard time tabbing this one…So do rate!

Intro 
                                          “Hey! Ho!”
e|-/14~-----14~-----12~-----12~-----10~-|----------------------------|
B|-/12~-----11~-----10~------9~------8~-|----------------------------|
G|--------------------------------------|----------------------------|
D|--------------------------------------|------------7-7-7-7-7-7-7-7-|
A|--------------------------------------|------------7-7-7-7-7-7-7-7-|
E|--------------------------------------|------------5-5-5-5-5-5-5-5-|

Intro lead
   Guitar 1
   16X                16X               16X
G|----------------------------------------------------------7~---------------|
D|--9------------------5----------------/7------------------7~-------7~------|
A|--9------------------5----------------/7------------------5~-------7~------|
E|--7------------------3----------------/5---------------------------5~------|
 | 
 | Guitar 2
e|---------------------------------------------------------------------------|
B|---------------------------------------------------------------------------|
G|------7-9-9/11~--9-7-----7-9-9/11~--9-7----7-9-9/11~--9-7-7~--11~--6~--7~\-|
D|-/9-9----------------9~-----------------7~---------------------------------|
(continued…

Verse 1
   Guitar 1
e|-7~----3~----5~----5~----|
B|-7~----3~----7~----5~----|
G|-7~----4~----7~----6~----|
D|-9~----5~----7~----7~----|   X2
A|-9~----5~----5~----7~----|
E|-7~----3~----------5~----|
 |
 | Guitar 2 (end of lead..1st time only)
G|-4~----------------------|

Pre-Chorus
   X8       X4   X4
e|-----------------------------|
B|-----------------------------|
G|-----------------------------|
D|-5--------9----7-------------|   X2
A|-5--------9----7-------------|
E|-3--------7----5-------------|

e|---3---3---3---3-7~---7-3-3--|
B|---3---3---3---3-7~---7-3-3--|
G|---4---4---4---4-6~---6-4-4--|
D|-----------------7~---7-5-5--|
A|-----------------7~---7-5-5--|
E|-3---3---3---3---5~---5-3-3--|

Chorus
  “prom queen…”      “magazines…”        “forever...” “girl for me”
             X8                   X8         X16         X8  X8
G|-7---7~-------------|--------------------|----------|-----------|
D|-7---7~----5--------|-9---9~----7--------|-5--------|-9----7----|
A|-5---5~----5--------|-9---9~----7--------|-5--------|-9----7----|
E|-----------3--------|-7---7~----5--------|-3--------|-7----5----|

             X8                   X8         X16         
G|-7---7~-------------|--------------------|----------|-----------|
D|-7---7~----5--------|-9---9~----7--------|-5--------|-7~----8~--|
A|-5---5~----5--------|-9---9~----7--------|-5--------|-7~----8~--|
E|-----------3--------|-7---7~----5--------|-3--------|-5~----6~--|

Post-chorus
  Guitar 1
e|-2-------------------|-3-------------------|
B|-3-------------------|-3-------------------|
G|-4-4444-6-7----9\----|-4---- --------------|
D|-4-4444-6-7----9\----|-5-5555-5-7-----7-8--|
A|-2-2222-4-5----7\----|-5-5555-5-7-----7-8--|
E|---------------------|-3-3333-3-5-----5-6--|  
 |   ....                  ....
 |
 | Guitar 2
 | X16                   X6    X8
e|---------------------|---------------------|
B|---------------------|---------------------|
G|-4-------------------|-7---7-6-------------|
D|-x-------------------|-x---x-x-------------|
A|-2-------------------|-5---5-4-------------|
E|---------------------|---------------------|
(continued…

   Guitar 1
e|-2-------------------|-3-------------------|
B|-3-------------------|-3-------------------|
G|-4-4444-6-7----9\----|-4---- --------------|
D|-4-4444-6-7----9\----|-5-5555-5-7-----8~---|
A|-2-2222-4-5----7\----|-5-5555-5-7-----8~---|
E|---------------------|-3-3333-3-5-----6~---|
 |   ....                  ....
 |
 | Guitar 2
 | X16                   X6    X8
e|---------------------|---------------------|
B|---------------------|---------------------|
G|-4-------------------|-7---7-6--------7~---|
D|-x-------------------|-x---x-x--------x~---|
A|-2-------------------|-5---5-4--------5~---|
E|---------------------|---------------------|
(continued…

Verse 2
     “Step back…”
   Guitar 1 (staccato)
e|--------------------------------------------------|
B|--------------------------------------------------|
G|-7--7--7--7—-7—-7-—7--7--7--7--7--7--7--7--6------|
D|-9--9--9--9—-5--5--5--5--7--7--7--7--7--7--7--7-8-|
A|-9--9--9--9—-5—-5--5--5--5--5--5--5--7--7--7--7-8-|
E|-7--7--7--7—-3--3--3--3--------------5--5--5--5-6-|
 |
 | Guitar 2
e|-------------|
B|-------------|
G|-------------|
D|-9\----------|
A|-9\----------|
E|-7\----------|
 |
 | Guitar 2 (just follow the rhythm)
 | actually I’m not sure who plays this D sound..
e|--------------------------------------------------|
B|--------------------------------------------------|
G|-7--7--7--7--7--7--7--7--7--7--7--7--7--7--7--7---|
D|-x--x--x--x--x--x--x--x--x--x--x--x--x--x--x--x---|
A|-5--5--5--5--5--5--5--5--5--5--5--5--5--5--5--5---|
E|--------------------------------------------------|


Guitar 1
   “Scream out…”
      X14         X14         X14        X6  X8
e|---------------------------------------------|
B|---------------------------------------------|
G|-------------------------7--7----------------|
D|-9--9--------5--5--------7--7--------7--7—-7-|
A|-9--9--------5--5--------5--5--------7--7—-7-|
E|-7--7--------3--3--------------------5--5—-5-|
       .           .           .           .

Pre-Chorus
Chorus (same as the 1st, lil’ bit strum change at the last bar..)
  “prom queen…”      “magazines…”        “forever...” “girl for me”
             X8                   X8         X16         X8  X8
G|-7---7~-------------|--------------------|----------|-----------|
D|-7---7~----5--------|-9---9~----7--------|-5--------|-9----7----|
A|-5---5~----5--------|-9---9~----7--------|-5--------|-9----7----|
E|-----------3--------|-7---7~----5--------|-3--------|-7----5----|

             X8                   X8         X16        X4   X4
G|-7---7~-------------|--------------------|----------|-----------|
D|-7---7~----5--------|-9---9~----7--------|-5--------|-7----8----|
A|-5---5~----5--------|-9---9~----7--------|-5--------|-7----8----|
E|-----------3--------|-7---7~----5--------|-3--------|-5----6----|

Solo
   Guitar 1
  X8                 X8                X8                X8
e|-----------------|-----------------|-----------------|-----------------|
B|-----------------|-----------------|-----------------|-----------------|
G|-----------------|-----------------|-7---------------|-----------------|
D|-9---------------|-5---------------|-7---------------|-7---------------|
A|-9---------------|-5---------------|-5---------------|-7---------------|
E|-7---------------|-3---------------|-----------------|-5---------------|
 |
 | Guitar 2 (this is the best I can figure out…) 
e|---------7-------|---------7-------|---------7-------|-5~------5---5---|
B|-7---7-------7---|-8---8-------8---|-7---7-------7---|-----------------|
G|---7---7---7---7-|---7---7---7---7-|-----------------|-----------------|
D|-----------------|-----------------|-----------------|-----------------|
A|-----------------|-----------------|-----------------|-----------------|
E|-----------------|-----------------|-----------------|-----------------|
(continued…

   Guitar 1
  X8                 X8                                
e|-----------------|-----------------|-----------------|-----------------|
B|-----------------|-----------------|-----------------|-----------------|
G|-----------------|-----------------|-7~--------------|-----------------|
D|-9---------------|-5---------------|-7~-------7~-----|-5~-------7~-8~--|
A|-9---------------|-5---------------|-5~-------7~-----|-5~-------7~-8~--|
E|-7---------------|-3---------------|----------5~-----|-3~-------5~-6~--|
 |
 | Guitar 2
e|---------7-------|---------7-------|-----------------|-----------------|
B|-7---7-------7---|-8---8-------8---|-7---------------|-----------------|
G|---7---7---7---7-|---7---7---7---7-|----/11---9---7--|-4~--------------|
D|-----------------|-----------------|----/-x---x---x--|-x~--------------|
A|-----------------|-----------------|----/-9---7---5--|-2~--------------|
E|-----------------|-----------------|-----------------|-----------------|
(continued…

Guitar 1 (solo ends)
D|-9~--------|
A|-9~--------|
E|-7~--------|

Chorus (same as intro)
   Guitar 1 comes in at “forever…”
 “forever…”   “girl for me!”
       X14
e|--------------------------|
B|--------------------------|
G|--------------------------|
D|-4-5--5--------7--7--7----|
A|-4-5--5--------7--7--7----|
E|-2-3--3--------5--5--5----|
 |       .
 | Guitar 2
e|--------------------------|
B|--------------------------|
G|--------------14-14-14\---|
D|---------------x--x--x\---|
A|--------------12-12-12\---|
E|--------------------------|


Chorus
  “prom queen…”      “magazines…”        “forever...” “girl for me”
   Guitar 1
             X8                    X8        X16         X8    X8
G|-9---9~-------------|---------------------|----------|------------|
D|-9---9~----7--------|-11--11~----9--------|-7--------|-11----9----|
A|-7---7~----7--------|-11--11~----9--------|-7--------|-11----9----|
E|-----------5--------|--9---9~----7--------|-5--------|--9----7----|
 |
 | Guitar 2 (not sure bout the lead..sounds ok to me….)
 |                                            X16        X8    X8
e|--------------------|---------------------|----------|------------|
B|--------------------|---------------------|----------|------------|
G|-13--13\------------|-13--13\-------------|-14-------|-6-----8----|
D|--x---x\------------|--x---x\-------------|--x-------|-x-----x----|
A|-11--11\------------|-11--11\-------------|-12-------|-4-----6----|
E|--------------------|---------------------|----------|------------|
(continued…

   Guitar 1
             X8                    X8        X16             X4        X4
G|-9---9~-------------|---------------------|--------------|-------------------|
D|-9---9~----7--------|-11--11~----9--------|-7------------|-9--------10-------|
A|-7---7~----7--------|-11--11~----9--------|-7------------|-9--------10-------|
E|-----------5--------|--9---9~----7--------|-5------------|-7---------8-------|
 |
 | Guitar 2
e|--------------------|---------------------|--------------|-------------------|
B|-9---------7--------|-9----------7--------|-10~-9~-7~-5~-|-7---7~----9----9~-|
G|----9---------9-----|-----9---------9-----|--------------|-------------------|
D|-------9---------9--|--------9---------9--|--------------|---9---------10----|
A|--------------------|---------------------|--------------|-------------------|
E|--------------------|---------------------|--------------|-------------------|

Outro
  Guitar 1
e|-4-------------------|---------------------|
B|-5-------------------|-5-------------------|
G|-6-6666-8-9---11\----|-6---- --------------|
D|-6-6666-8-9---11\----|-7-7777-7-9-----9-10-|
A|-4-4444-6-7----9\----|-7-7777-7-9-----9-10-|
E|---------------------|-5-5555-5-7-----7-8--|  
 |   ....                  ....
 |
 | Guitar 2 (4 on the e string is optional)
 | X16                   X6    X8
e|-4-------------------|---------------------|
B|---------------------|---------------------|
G|-6-------------------|-9---9-8-------------|
D|-x-------------------|-x---x-x-------------|
A|-4-------------------|-7---7-6-------------|
E|---------------------|---------------------|
(continued…

  Guitar 1                          song ends here
e|-4-------------------|---------------------|
B|-5-------------------|-------------7~------|
G|-6-6666-8-9---11\----|------ ------8~------|
D|-6-6666-8-9---11\----|-7-77-77-----9~------|
A|-4-4444-6-7----9\----|-7-77-77-----9~------|
E|---------------------|-5-55-55-----7~------|  
 |   ....                 . .. .. 
 | Guitar 2
 | X16                   X6    X8
e|-4-------------------|---------------------|
B|---------------------|-------------7~------|
G|-6-------------------|-------------8~------|
D|-x-------------------|-7-77-77-----9~------|
A|-4-------------------|-7-77-77-----9~------|
E|---------------------|-5-55-55-----7~------|
                          . .. .. 


official
PROM QUEEN LYRICS..
Shes the prom queen
top 5 in magazines
where i go forever

HEY HO LETS GO!

dressed up in your best
your ready
to hit the dance floor
tonight

flash down the spotlight
right on you
everyone knows you
this time

and so i....
cant go on

and i....
want you to know that

your cool your hot
you make me go
oh oh oh...

c/o
Shes the prom queen
top 5 in magazines
where i go forever
shes no girl for me

step back in the moonlight
let me sing
i..ll be king
oh, in this broken dream

scream out the words of the fame
coz im in too much pleasure
tonight

and so i...
cant go on

and i....
want you to know that

your cool your hot
you make me go
oh oh oh..

c/o n c/o


xxxxxxxxxxxxxxxxxxxxxxxxxxxxxxxxxxxxxxxxxxxxxxxxxxxxxxxxxxx
k…any comments/requests please contact me..
zar_of_filth92@yahoo.com
for myspace users u can find me using my email..

Assalamualaikum…
Tap to rate this tab
# A B C D E F G H I J K L M N O P Q R S T U V W X Y Z