Song name
# A B C D E F G H I J K L M N O P Q R S T U V W X Y Z

Bunkface - Prom Queen tab

Prom Queen


Keyboard sound
       B   A#  A   G#  G
E[----/14--14--12--12--10-]
B[----/12--11--10--9---8--]
G[------------------------]
D[------------------------]
A[------------------------]
e[------------------------]
 
         B     
"She the Prom Queen
 A#      A 
"Top 5 in magazine
 G#         G
"Where I go Forever

  Rythm
E]--------------------]
B]--------------------]
G]--------------------]
D]---------77777777777]
A]---------77777777777]
e]---------55555555555]

  "Hey Ho , Let's Go

  Intro Part:-
  
Lead 
E]-------------------------------------------------------------------]
B]-------------------------------------------------------------------]
G]-------7-9-9/11-9-7-9---7-9-9/11-9-7-9---7-9-9/11-9-7-9--7-11-7-9--]
D]----/9----------------9----------------7-------------------------9-]
A]-------------------------------------------------------------------]
e]-------------------------------------------------------------------]

2nd Guitar
E]-------------------------------------------------]
B]-------------------------------------------------]
G]-----------------------------------7777--6666----]
D]---999999999-555555555--777777777--7777--6666----]
A]---999999999-555555555--777777777--5555--4444----]
e]---777777777-333333333--555555555----------------]


Verse Part1:-

2nd Guitar
     Bm  G   D   A
E]---7---3---5---5--]
B]---7---3---7---5--]
G]---7---4---7---6--]
D]---9---5---7---7--]
A]---9---5---5---7--]
e]---7---3---x---5--]

Bm
"Dressed up with your best"
G
"Your ready"
             D
"To hit the dance floor"
     A
"Tonight"

Lead
E]--5-5/7--]
B]---------]
G]---------]
D]---------]
A]---------]
e]---------]

Bm
"Flash down the spotlight"
G
"Right on you"
          Dm
"Everyone knows you"
      A
"This time ..."

Pre-Chorus

2nd Guitar

        G            Bm            A
E]-------------|-------------|------------|
B]-------------|-------------|------------|
G]-------------|-------------|------------|
D]--5555555555-|---999999----|---777777---|
A]--5555555555-|---999999----|---777777---|
e]--3333333333-|---777777----|---555555---|

        G
"And So I ...."
 Bm        A
"Can't go on"
     G
"And I ...."
 Bm           A
"Want you to know that"

2nd
       G
E]-----------|------]
B]-----------|------]
G]-----------|------]
D]--5-5-5-5--|---7--]
A]--5-5-5-5--|---7--]
e]--3-3-3-3--|---5--]

 G
"You cool you hot"
             A
"You make me go "
            G
"Oh...oh...oh"


Chorus Part

Rythm
     D         G         Bm      A
E]--------|---------|--------]---------|
B]--------|---------|--------]---------|
G]-77777--|---------|--------]---------|
D]-77777--|--55555--|--99999-]--77777--|
A]-55555--|--55555--|--99999-]--77777--|
e]--------|--33333--|--77777-]--55555--|


           D
"She's the Prom Queen"
   G        Bm        
"Top 5 in Magazines"
  A           G
"Where I go forever"
  Bm              A
"She not girl for me" 

           D
"She's the Prom Queen"
   G         Bm
"Top 5 in magazines"
  A           G
"Where I go forever"
  A      
"She not girl for me"


Intro Verse2 :

Lead
E]--------------------------------------------------------------]
B]--------------------------------------------------------------]
G]--------------------------------------------------------------]
D]-----------2-------------------------2------------------------]
A]--2--2-3-4---4-4-4-4-4-4-3-4/9--2--2-3-4---4-4-4-4-4-4-3-4-2~-]
e]--------------------------------------------------------------]

2nd
E]--------------------------------------------------------------]
B]--------------------------------------------------------------]
G]-----------7777-----------7777--------------------------------]
D]-9999-5555-7777-7777-5555-7777-7777---------------------------]
A]-9999-5555-5555-7777-5555-5555-7777---------------------------]
e]-7777-3333------5555-3333------5555---------------------------]

Verse 2 :
 Bm                G   
"Step back in the moonlight"
         D
"Let me sing"

"I'll be king"
      A   
"Oh, in this broken dream"

2nd Guitar
     Bm      G       D        A
E]----------------------------------------------------------------]
B]----------------------------------------------------------------]
G]----------------7xxxxxxx----------------------------------------]
D]-9xxxxxx-5xxxxx-7xxxxxxx-7xxxxxxx-------------------------------]
A]-9xxxxxx-5xxxxx-5xxxxxxx-7xxxxxxx-------------------------------]
e]-7xxxxxx-3xxxxx----------5xxxxxxx-------------------------------]
  Bm                         G
"Scream out the word of the fame "
                         D
"Coz' I'm in too much pleasure "
    A
"Tonight "

 

Pre-Chorus x1

Chorus 
           D       
"She's the Prom Queen"
 G         Bm    
"Top 5 in magazine "
A            G
"Where I go forever"
      Bm          A
"she not girl for me"

          D
"She the Prom Queen"
 G         Bm  
"Top 5 in magazine"
A           G
"Where I go forever"
          A       A# Bm 
"She not girl for me oh"
  
Solo
Lead 
E]-------7-----------7-----------7------5~---5-5------7---------7---]
B]--7--7---7--8--8-----8--7--7-----7-------5-5---7--7---7--8--8---8-]
G]------------------------------------------------------------------]
D]------------------------------------------------------------------]
A]------------------------------------------------------------------]
e]------------------------------------------------------------------]
                     "She not girl For me,oh..oh.. "
2nd Guitar (slow)
E]----------------------------------------------]
B]----------------------------------------------]
G]-------------------77777777-------------------]
D]-99999999-55555555-77777777-77777777-99999999-]
A]-99999999-55555555-55555555-77777777-99999999-]
e]-77777777-33333333----------55555555-77777777-]


2nd Guitar (fast)
E]-------------------------------------------------]
B]-------------------------------------------------]
G]---77777-7/9-7-----------------------------------]
D]---xxxxx-x-x---9--7-8-9--------------------------]
A]---55555-5/7-5-x--x-x-x--------------------------]
e]---------------7--5-6-7--------------------------]


Last Chorus:

Keyboard sound x1

"She the Prom Queen "
"Top 5 in magazine "
"Where I go forever"

2nd

E]--------]
B]--------]
G]--------]
D]-7-7-7--]
A]-7-7-7--]
e]-5-5-5--]
"She not girl for me" 

Chorus:

2nd
     E          A            C#              Bm
E]---------|----------|----------------|-------------]
B]---------|----------|----------------|-------------]
G]--999999-|----------|----------------|-------------]
D]--999999-|--777777--|---111111111111-|--999999999--]
A]--777777-|--777777--|---111111111111-|--999999999--]
e]---------|--555555--|----9-9-9-9-9-9-|--777777777--]

            E
"She's the Prom Queen"
 A            C#         
"Top 5 in magazine "
Bm            A
"Where I go forever "
          C#      Bm
"She not girl for me "


Lead
E]---9---9---9---9--9-10-9-7-5--5-7-9-7-9-7-5]
B]----9---9---9---9--------------------------]
G]-----9-------9-----------------------------]Bersambung Dgn outro
D]-------------------------------------------]
A]-------------------------------------------]
e]-------------------------------------------]
   "she's the Prom Queen ...."

Outro
Lead
E]-----------------------------------------------------]
B]-----------------------------------------------------]
G]-----------------------------------------------------]
D]----------4-----------------------4---7-77-77-9~-----]
A]--4-4-6-7---777777-6-7/11-4-4-6-7-----7-77-77-9~-----]
e]--------------------------------------5-55-55-7~-----]

2nd Guitar
E]--------------------------------------------------------------]
B]--------------------------------------------------------------]
G]--------------------------99999-------------------------------]
D]----111111111111---77777--99999-1111111111-77777777-7-77-77-9~]
A]----111111111111---77777--77777-1111111111-77777777-7-77-77-9~]
e]----9-9-9-9-9-9----55555--------9-9-9-9-9--55555555-5-55-55-7~]
Tap to rate this tab
# A B C D E F G H I J K L M N O P Q R S T U V W X Y Z