Song name
# A B C D E F G H I J K L M N O P Q R S T U V W X Y Z

Bunkface - Through My Window tab

Band :Bunkface
Song :Through My window


Intro :

Guitar 1/2 

E]-----------------]
B]-7-7-7-7-5-5-5-5-]
G]-----------------]
D]-----------------]
A]-----------------]
e]-----------------]

Guitar 1(Lead)
   
   D        G          A           Bm   G*   
E]---------------------------------------------]
B]-/7--5-5----3-3-2-3~---3-3-2-3~-3-3-5-3-2----]
G]----------4----------4--------------------2--]
D]---------------------------------------------] X2
A]---------------------------------------------]
e]---------------------------------------------]

Guitar 2
     D       G       A       Bm     G*
E]-------]-------]-------]-------]-------]
B]-------]-------]-------]-------]-------]
G]-7-----]-------]-------]-------]-------]
D]-7(X8)-]-5-----]-7-----]-9-----]-5-----]X2
A]-5-----]-5(X8)-]-7(X8)-]-9(X4)-]-5(X4)-]
e]-------]-3-----]-5-----]-7-----]-3-----]


Verse 1:-

Guitar 2

E]----------------------------------------------------------------]
B]----------------------------------------------------------------]
G]---------------------------------7-------6----------------------]
D]-X-------X-----------------------X(x16)--X(x16)--9-------5------]
A]-5(x16)--4(x16)--X-------x-------5-------4-------X(x16)--X(x16)-]
e]-----------------7(x16)--3(x16)------------------7-------3------]
   "I don't ..."            "In blink ..."


Chorus :-

Guitar 1&2

E]-------]-------]-------]-------]-------]
B]-------]-------]-------]-------]-------]
G]-7-----]-------]-------]-------]-------]
D]-7(X8)-]-5-----]-7-----]-9-----]-5-----]X4
A]-5-----]-5(X8)-]-7(X8)-]-9(X4)-]-5(X4)-]
e]-------]-3-----]-5-----]-7-----]-3-----]

Bridge:-
(Macam Intro)

Verse :-

Guitar 2

E]--------------------------------]
B]--------------------------------]
G]--------------------------------]
D]-X-------X-------9-------5------]
A]-5(x16)--4(x16)--X(x16)--5(x16)-]
e]-----------------7-------3------]


Chorus

Outro

Guitar 1&2

(same ngan Chorus tapi 2 kali je, pastuh sambung tab bawah ni)

E]----]
B]----]
G]-7~-]
D]-7~-]
A]-5~-]
e]----]


Tap to rate this tab
# A B C D E F G H I J K L M N O P Q R S T U V W X Y Z