Bunkface - Situasi tab

-------------------------------------------------------------------------------
			     SITUASI - Bunkface
-------------------------------------------------------------------------------
Tabbed by:mirulz95
Email: amyrulharris@yahoo.com(facebook)



Tuning: standard kucing
intro
1st guitar/sam

*diskriminasi menjatuhkan aku......
e|-----------------------|
B|-----------------------|
G|3-3--------------------|
D|3-3--3-3--4-4--6-6-----| 3x
A|1-1--3-3--4-4--6-6--a
E|-----1-1--2-2--4-4-----|

e|-----------------------|
B|-----------------------|
G|6-6--------------------|
D|6-6--6-6--4-4--6-6-----|
A|4-4--6-6--4-4--6-6-----|
E|-----4-4--2-2--4-4-----|



2nd guitar/paan
drum masok lead un masok

e|-----------------------|
B|-----------------------|
G|----6~-----------------|
D|6h8---6h8--6h8---------| 
A|-----------------------|
E|-----------------------|   \
                               ulang mende jadah ni 2x
e|-----------------------|   /
B|-----------------------|
G|----6~--5p6--5p6-------|
D|6h8--------------------|
A|-----------------------|
E|-----------------------|



*mengharapkan sesuatu yg baru.......
1st guitar
e|----------------------------------------------|
B|----------------------------------------------|
G|------3~--------------------------------------|
D|4~----3~----4~-----6666666--------------------|
A|4~----1~----4~-----6666666--------------------|
E|2~----------2~-----4444444--------------------|
                     .palm mute


2nd guitar

e|--------9---------------------9--------------|
B|11--11---11--11-------11--11---11--11--------|
G|--11--11---11-----------10--10---10----------|
D|---------------------------------------------|
A|---------------------------------------------|
E|---------------------------------------------|
  (let ring)~ ~ ~ ~ ~ ~ ~ ~ ~ ~ ~ ~ ~ ~ ~ ~ ~

e|--------9--9/11--|
B|11--11-----------|
G|--11--11-11------|
D|-----------------|
A|-----------------|
E|-----------------|
  (let ring)~ ~ ~


chorus
1st guitar

*dan...bila kau menghilang.........
e|--------------------------------|
B|--------------------------------|
G|66666666666666------------------|
D|66666666666666-66666666666666---|
A|44444444444444-66666666666666---|
E|---------------44444444444444---|

e|--------------------------------|
B|--------------------------------|
G|--------------------------------|
D|88888888888888-44444446666666---|
A|88888888888888-44444446666666---|
E|66666666666666-22222224444444---|

ulang chord ni sampai "dalam ingatanku"

e|------------------|
B|------------------|
G|------------------|
D|4444444--6~~------|
A|4444444--6~~------|
E|2222222--4~~------|



2nd guitar

e|4---4-------------4---4----6644-----|
B|--6---6-7766--------4---4-----------|
G|------------------------------------|
D|------------------------------------|
A|------------------------------------|
E|------------------------------------|

e|6---6----8898-----6---6---8---8-----|
B|--6---6-------------7---7---9---9---|
G|------------------------------------|
D|------------------------------------|
A|------------------------------------|
E|------------------------------------|

ulang sampai "dalam ingatanku"

e|---------------------|
B|---------------------|
G|-------------3-------|
D|-------------3-------|
A|4~~3~~1~~----1-------|
E|---------4~~---------|


*kerna diri ini x daya lagi.........
1st guitar
(same cam intro)

2nd guitar
(selepas "kerna diri ini tak daya lagi")

e|-8h9-8-----------------------|
B|------9-9/11~-9~-7~-9\-------|
G|-----------------------------|
D|-----------------------------|
A|-----------------------------|
E|-----------------------------|
same cam intro 

solo
1st guitar
e|---------------------------------|
B|---------------------------------|
G|---------------------------------|
D|4444444-6666666-4444444-6666666--|
A|4444444-6666666-4444444-6666666--|
E|2222222-4444444-2222222-4444444--|

2nd guitar
e|---------------------------------------------------------------------------|
B|---------------------------------------------------------------------------|
G|11111111\10101010/15151515\13131313\11111111/13131313/15151515/17171717----|
D|---------------------------------------------------------------------------|
A|9-9-9-9-\8-8-8-8-/13131313\11111111\9-9-9-9-/11111111/13131313/15151515/16~|
E|---------------------------------------------------------------------------|
  *11


pas2 ulang chorus 3 kali....habis!!!!
klu ade pape silap dan salah harap maafkan..


made my mirul95
(facebook)amyrulharris@yahoo.com
Tap to rate this tab
 
# A B C D E F G H I J K L M N O P Q R S T U V W X Y Z