Song name
# A B C D E F G H I J K L M N O P Q R S T U V W X Y Z

Bunkface - Panik tab

-------------------------------------------------------------------------------
                             Panik - Bunkface
-------------------------------------------------------------------------------
Tabbed by: mirulz95
E-mail: amyrulharris@gmail.com

Tuning:standard tuning


intro
first guitar (sam)
e|--------------------|
B|--9-9-9-9-9-9-9-9---|
G|--9-9-9-9-9-9-9-9---|   8 kali
D|--1111111111111111--|
A|--------------------|
E|--------------------| *11

  2nd guitar(paan)
start bar ke-5
e|---------------------------------------|
B|-9-9-9-9-9-9-10-10-9-9-9-9-9-9-10-10---|
G|--9-9-9-9-9-9--9--9-9-9-9-9-9-9--9--9--|
D|---------------------------------------|
A|---------------------------------------|
E|---------------------------------------|
  let ring~~~~

  lalalala
e|---------------------------------------------------------------------|
B|--------------------------------------------------------9---9--------|
G|-2-2-2-2-4-4-4-6-6-6-6-6-9-9-9-9-2-2-2-2-4-4-4-5-5-5-5--12b-12b------|
D|-2-2-2-2-4-4-4-6-6-6-6-6-9-9-9-9-2-2-2-2-4-4-4-5-5-5-5---------------| (x2) 
A|-0-0-0-0-2-2-2-4-4-4-4-4-7-7-7-7-0-0-0-0-2-2-2-4-4-4-4---------------|
E|---------------------------------------------------------------------|

  verse
e|-------------------------------------------------------------------------|
B|-------------------------------------------------------------------------|
G|-66666666-------------------44444455-66666666-------------------44444444-|
D|-66666666-77777766-44444444-44444455-66666666-77777777-22222222-44444444-|
A|-44444444-77777766-44444444-22222233-44444444-77777777-22222222-22222222-|
E|----------55555544-22222222-------------------55555555-00000000----------|
  (palm mute---------)

 kini aku di perhati...
 1st guitar
e|-----------------------------------------------------------------|
B|-----------------------------------------------------------------|
G|-6--6--6--6--6--6--6--6--6--6--6--6--6--6--6--6-------44444444---|
D|-7--7--7--7--7--7--7--7--6--6--6--6--6--6--6--6--6----44444444---|
A|-7--7--7--7--7--7--7--7--4--4--4--4--4--4--4--4--6----22222222---|
E|-5--5--5--5--5--5--5--5--------------------------4---------------|
  
  2nd guitar
e|--55555555-4444444--2-------|
B|--55555555-5555555--4-------|
G|----------------------------|
D|----------------------------|
A|----------------------------|
E|----------------------------|

chorus
biarkan ku pergi juang..
e|-----------------------------------------------------------------------|  
B|-----------------------------------------------------------------------|
G|--6666666-444444444-------------------6666666--------------------------|
D|--6666666-444444444-2222222-777777777-6666666-666666666-77799--xxxxxxx-|
A|--4444444-222222222-2222222-777777777-4444444-666666666-77799--xxxxxxx-|
E|--------------------0000000-555555555---------444444444-55577--xxxxxxx-|

e|---------------------------------------------------------------|  
B|---------------------------------------------------------------|
G|--6666666-444444444-------------------6666666------------------|
D|--6666666-444444444-2222222-777777777-6666666-666666666-4------|
A|--4444444-222222222-2222222-777777777-4444444-666666666-4------|
E|--------------------0000000-555555555---------444444444-2------|

sudah bersedia
ulang part "lalalalala" tu skali

verse 2
reformasi!
e|---------------------------|
B|---------------------------|
G|-6-------------------4-----|
D|-6---9-7---7-6-4---4-4-----|
A|-4---9-7---7-6-4---4-2-----|
E|-----7-5---5-4-2---2-------|

ancaman mereka..
1st guitar (ulang macam verse palm mute tadi)
2nd guitar (ade lead sikit)
e|-----------------------------|
B|-----------------------------|
G|---4/6--4--2--1--------------|
D|----------------2~~1~~~------|
A|-----------------------------|
E|-----------------------------|

ulang "kini aku di perhati"
ulang chorus

guitar riff
1st guitar
e|--------------------|
B|--------------------|
G|-666-444-999-6-xxxx-|
D|-666-444-999-6-xxxx-| (6x)
A|-444-222-777-4-xxxx-|
E|--------------------|

2nd guitar
start bar ke-4
e|-----------------------------------|
B|-----------------------------------|
G|-----------------------------------|
D|-13-13-13--11-11-11--14-14-14--13--| (x2)
A|-11-11-11--9--9--9---12-12-12--11--|
E|-----------------------------------|

e|------------------------------|
B|------------------------------|
G|--9-------8-8-8---------------|
D|---11-9-----------7-7-7--6~~~-| (2x)
A|------------------------------|
E|------------------------------|

slow part(piano)...

A    B      C#m
Ku selalu berasingan jauh
    A    B       C#m
Dan ku biarkan mulut celakamu

(palm)
       A      B        C#m
Kan ku tunggu tunggu kebenaran
                A   
Ditentukan padaku padamu
     B              C#m
Pada mereka yang setuju

ulang chorus
ulang "lalalala"

enjoy! :)


************************************

| /   slide up
| \   slide down
| h   hammer-on
| p   pull-off
| ~   vibrato
| +   harmonic
| x   Mute note
| b   Bend
| pb  Pre-bend
| br  Bend release
| pbr Pre-bend release
| brb Bend release bend

************************************
Tap to rate this tab
# A B C D E F G H I J K L M N O P Q R S T U V W X Y Z