Song name
# A B C D E F G H I J K L M N O P Q R S T U V W X Y Z

Buono - Renai Rider tab

Renai Rider by Buono! (http://buono-net.com/pc_index.html)
Tabbed by manOutOfTime (neil_willey@hotmail.com)
Key: C#

**Intro**
-66-99-1111-6-9-11--|--/11-11-111111-1111-9-8---4/6-6-6666-88-888-----|
-66-99-1111-6-9-11--|-------------------------------------------------|
--------------------|-------------------------------------------------|
--------------------|-------------------------------------------------|
--------------------|-------------------------------------------------|
--------------------|---------------------------------------------rpt-|
                Riff>

-9-9--99-99-1111-1111--|
-----------------------|
-----------------------|
-----------------------|
-----------------------|
-----------------------|


**Verse Singing Melody**
----------------------------------|------------------------|-----------------|
-6-9------------------------------|------9-11--11---13-13--|------9-11--11---|
-----8-10--5-8----5------5-5------|-8-10-------------------|-8-10------------|
----------------8-----6-------8-6-|------------------------|-----------------|
----------------------------------|------------------------|-----------------|
----------------------------------|------------------------|-----------------|

-----------||----------------------------------------------------------------|
-13-13-9-9-||----------------------------------------------------------------|
-----------||----------------------------------------------------------------|
-----------||----------------------------------------------------------------|
-----------||----------------------------------------------------------------|
-----------||----------------------------------------------------------------|

**Verse**
C#
Sekai ga owareba sore made jan
	    G#
Suki da yo! OMAE
Suki! SUKI! Suki nan da!

C#
JITABATA atashi wa ikiteruze
	   G#
kizuke yo! OMAE
suki! SUKI! Suki na no ni!

**Bridge**
C# Bbm	   Fm  G#      Fm
Iitai kuse ni ienain da yo
Fm Bbm       C#   C#sus2 C# C#sus2
tsutaetai na My ? HAATO
        Bbm       Fm     G#
Oh Yes! HIIROO wa hitori dake

**Chorus**
G#		   Fm
Koi shiteru kagiri dekoboko darake
C#		        Bbm
hashiri tsuzukero hora! HENACHOKO RAIDAA
G#		    Fm          Fm7
yuuyake ippon michi motto motto tsuyoku
C#		  Bbm        G#
seishun no kouya wo hashire

**Riff**

**Verse**
C#
Ashita wa ashita no kaze yo fuke
	   G#
BIBIRU na! Atashi
arashi wo yobu ONNA

C#
HAPPIIENDO de doro darake
	  G#
yatta ne! Atashi
donzoko tachiagaru

**Bridge**
C# Bbm	   Fm  G#      Fm
Nakitain da yo ureshiin da yo
Fm Bbm   C#   C#sus2 C# C#sus2
toriaezu DABURU PIISU!!
        Bbm       Fm       G#
Go! Go! Doko made mo tsuppashire


**Chorus**
G#		   Fm
Koi shiteru kagiri FURAFURA darake
C#		     Bbm
aishi tsuzukero ike! HENACHOKO RAIDAA
G#		  Fm          Fm7
KOKETE kizutsuite kitto kitto itsuka
C#		  Bbm        G#
saikou no kiseki wo tsukame

**Break**
---------------------|------------------------------------------------------|
---------------------|------------------------------------------------------|
---------------------|------------------------------------------------------|
---------------------|------------------------------------------------------|
------3-2-1----------|------------------------------------------------------|
-1--1-------4--1-0-1-|------------------------------------------------------|
                  x12?

Fm    C#      Fm      G#	Fm
Michi ni mayotte sore demo ii yo
Fm     C#     Bbm
kotoba tarazu My ? HAATO
        C#	        G#
Oh Yes! HIIROO wa hitori dake

**Chorus**
G#		   Fm
Koi shiteru kagiri dekoboko darake
C#		        Bbm
hashiri tsuzukero hora! HENACHOKO RAIDAA
G#		    Fm          Fm7
yuuyake ippon michi motto motto tsuyoku
C#		  Bbm        G#
seishun no kouya wo hashire

Riff & Intro
Tap to rate this tab
# A B C D E F G H I J K L M N O P Q R S T U V W X Y Z