Song name
# A B C D E F G H I J K L M N O P Q R S T U V W X Y Z

Buono - Independent Girl tab

Buono! - Independent Girl~dokuritsu joshi dearu tame ni (Method for that!)
tabbed by manOutOfTime


---------------------------------|-----------------------------|-------------|
-121212------151515121212--12----|121212------151515121212--12-|-------------|
-------141414------------14--1414|------141414------------14---|-------------|
---------------------------------|-----------------------------|-------------|
---------------------------------|-----------------------------|-------------|
---------------------------------|-----------------------------|-------------|

----------------------------------|-------------------------------|----------|
-------12-12-------12-12-12-12-8\-|-------12-12-------15-15-12-15-|----------|
-------14-12-------14-14-12-12-9\-|-------14-12-------17-16-14-16-|----------|
-12-12-------12-12----------------|-12-12-------12-12-------------|----------|
----------------------------------|-------------------------------|----------|
----------------------------------|-------------------------------|----------|
                                   XXINTRO VERSIONXX

----------------------------------|----------------------------|-------------|
-------12-12-------12-12-12-12-8\-|-101010101010/---12/--------|-------------|
-------14-12-------14-14-12-12-9\-|-111111111111/---14/--------|-------------|
-12-12-------12-12----------------|----------------------------|-------------|
----------------------------------|----------------------------|-------------|
----------------------------------|----------------------------|-------------|

-------------------|---------------------------------------------------------|
----12----12-------|---------------------------------------------------------|
----14----12-------|---------------------------------------------------------|
-12----12----1212--|---------------------------------------------------------|
-------------------|---------------------------------------------------------|
-------------------|---------------------------------------------------------|
 XXXMIDDLE VERSION

      Em
me wo samashite yo
      Am              D               G      G/F#
sonna namida wo nagasaseta no wa kare nante
      Em              C
anata no koto wo aishiteitara
        D
kitto hidoi koto dekinai hazu deshou

      Em
okashii yo
      Am              D               G      G/F#
kizukanai uchi hito ni furimawasarechatte
      Em              C
fuku no shumi toka kami no iro made
        D
dareka no iinari ni natteru

C             D
koi wa moumokutte iu yo
      Bm              Em
Bad Medicine mitai na Mon da yo
       C                  D              Em
hontou no ai wa sonna tsuraku nanka nai AIYA

    Em       Bm            Am
Independent Girl janakya Dame sa A-han
       Bm
koe wo kikasete yo
    Em      D            C     D
dareka no mono nanka janain da watashitachi

    Em       Bm            Am
Independent Girl janakya Dame sa A-han
       Bm
kocchi wo muite yo
    Em      D            C     D
jibun no ikikata kurai jibun de Kimetemina yo

MIDDLE (Intro)

         Em            Am
Nikoniko warau baka na Onna ni
       D            G         G/f#
narisagatteru anata nante
       Em             C
hontou no anata nanka janai wa
       D
hayaku genjitsu ni kizuite

       C         D
keitai yatara ni Chekku
      Bm                   Em
saretemi ugoki torenai mainichi
        C         D                      Em
maru de dorei mitai yo kanashiittara nai AIYA

    Em       Bm            Am
Independent Girl ni naranakucha A-han
       Bm
sugu ni torimodose
    Em      D            C     D
jibun de kimeta kotae wa kitto tadashii

    Em       Bm            Am
Independent Girl ni naranakucha A-han
       Bm
anata wa anata yo
    Em      D            C     D
watashitachi no mirai wa jibun de kirihiraku no

SOLO
-------------------------------||-----|------------------------------|---|---|
-------------------------------||-15v-|-/12-\10--10--10\8--8--7-7--8-|-8-|---|
-------------------------------||-----|-/11-\9---9---9-\7--7--6-6--7-|-7-|---|
-------------------------------||-----|-/9--\7---7---7-\5--5--4-4--5-|-5-|---|
-------------2-2-2-------------||-----|------------------------------|---|---|
-3-3-3-2-2-2-------3-3-3-2-3-2-||-----|------------------------------|---|---|
                                                               x2    1st

-----|-----------||---------------------------|------------------------------|
--13-|-----------||-7-7--7-7--10-10--13-13\---|------------------------------|
--12-|-----------||-6-6--6-6--9--9---12-12\---|------------------------------|
--10-|-----------||-4-4--4-4--7--7---10-10\---|------------------------------|
-----|-----------||---------------------------|------------------------------|
-----|-----------||---------------------------|------------------------------|
 2nd   rpt (1st)

    Em       Bm            Am
Independent Girl janakya Dame sa A-han
       Bm
koe wo kikasete yo
    Em      D            C     D
dareka no mono nanka janain da watashitachi

    Em       Bm            Am
Independent Girl janakya Dame sa A-han
       Bm
kocchi wo muite yo
    Em      D            C     D
jibun no ikikata kurai jibun de Kimeteminayo

Intro

-----------------------------------------------------------------------------|
-1010101010101010--121212121212-12v------------------------------------------|
-1111111111111111--141414141414-12v------------------------------------------|
-----------------------------------------------------------------------------|
-----------------------------------------------------------------------------|
-----------------------------------------------------------------------------|
Tap to rate this tab
 
# A B C D E F G H I J K L M N O P Q R S T U V W X Y Z