Buono - Rock No Kamisama chords

Highlighted       Show chord diagrams
Rock No Kamisama
Buono
tabbed by manOutOfTime

D#        Bb           Cm
Aozora ni dokonjou misetsukete yare

D# D# D# D# D# D# D# D# D#/F
D# D# D# D# D# D# D# D# Bb

G#                       Gm
Taiikukan no ura wo toorinukeru kaze ga
Fm                             Cm
hetakuso na gitaa tooku made hakonde iku yo

G#
Ato tooka de bunkasai
Gm
yatto mitsuketa menbaa
      Cm           G#              D#  Bb  D#
kitto rokku no kamisama ga awasete kuretan da

Cm
Sannin jan dakedo ii jan
Gm          Cm
ii kyoku ga dekita yo
G#          Gm
chotto setsunai shi wo tsuketan da
G#        Cm    Bb
dou kana? Demo ikeru

Bb Bb C

Cm             G#    Bb
Tomaranai waki agaru shoudou merodi
Gm    Cm    Bb    D#   Bb
ka ki na ra se karadajuu de
Cm          G#         Cm       Bb  G#
nagareboshi tsukamaete My Dream kanaetai
Cm G#        Gm   G#     D#        Bb
ao zora ni dokon jou misetsukete yare
                D#
Rock  n  roll Girls

*Intro riff* x2

G#                       Gm
Akogare no senpai mo mi ni kite kureru kana#
Fm                             Cm
itsumo to chigau sannin wa dare yori kureijii kuuru

G#
Chiisa na suteeji demo
Gm
atashi tachi ni wa budookan
      Cm           G#              D#  Bb  D#
kitto rokku no kamisama ga mamotte kurerun da

Cm
kaunto ga hajimattara
Gm          Cm
miminari uzun naka
G#          Gm
chotto zureta rizumu de mo ii
G#        Cm    Bb
Goo na biito te ni irero

Bb Bb C

Cm             G#    Bb
Wasurenai kono kimochi yuujou merodi
Gm Cm G# D# Bb   Cm     G#
na ri hi bi ke mune no oku de
Cm          G#         Cm       Bb  G#
mukai kaze sakaratte Freedom tsukamitai
Cm G#        Gm   G#     D#        Bb
aozora ni do konjou misetsukete yare

Rock  n  roll Girls

**Wah? Solo**
----------------|-----------|-----------|------------|------------|-15b17----|
----------------|-----------|-----10^---|------------|-8-10-11tr--|----------|
-13b14--12v\0---|-11b12-10--|-9-7-------|-11b12--10--|------------|----------|
----------------|-----------|---------7-|------------|------------|----------|
----------------|-----------|-----------|------------|------------|----------|
----------------|-----------|-----------|------------|------------|----------|


-15b17--15-13-|----------------|----------------------------------------------|
--------------|-8/12\8/13-13v--|----------------------------------------------|
--------------|----------------|----------------------------------------------|
--------------|----------------|----------------------------------------------|
--------------|----------------|----------------------------------------------|
--------------|----------------|----------------------------------------------|

Cm             G#    Bb
Tomaranai waki agaru shoudou merodi
Gm Cm G# D# Bb   Cm   G#
ka ki na ra se karadajuu de
Cm          G#         Cm       Bb  G#
nagareboshi tsukamaete My Dream kanaetai
Cm G#        Gm   G#     D#        Bb
ao zora ni dokon jou misetsukete yare

Cm             G#    Bb
Wasurenai kono kimochi yuujou merodi
Gm Cm G# D# Bb   Cm     G#
na ri hi bi ke mune no oku de
Cm          G#       Cm         Bb  G#
mukai kaze sakaratte Freedom tsukamitai
Cm G#        Gm   G#     D#        Bb
aozora ni do konjou misetsukete yare
                D#
Rock  n  roll Girls
Tap to rate this tab
 
# A B C D E F G H I J K L M N O P Q R S T U V W X Y Z