Buono - Co No Mi Chi tab

Buono! - Bo No Mi Chi (This Road)
tabbed by manOutOfTime (neil_willey@hotmail.com)
Message me for Hello!Project tab requests

Key: F#m

CHORUS
D      E       F#m
kono michi aruiteku yo
D        E       A
nani ga arou to mo
D          E       F#m
bokutachi chikara awaseta toki
D        E         A
nani ka ga kawaru sa

A A A AAA D D D DDD A A A AAA D D E E

VERSE
A          F#m
zettai tte kotoba wo ne
     D              A
kimi wa sugu tsukau keredo
B       C#        D#m  B
mou sukoshi dake kangaeyou
B                  C#
sore shika dekinai no ka

VERSE II
A             F#m
bimyou na kokoro no ugoki
D             E       A
wakaru you ni natte kita yo ne
      B     C#  D#m   B
jibun no jitsuryoku nante mon mo
D#m       Bb      D#m
daishi ta koto naishi

BRIDGE
B               C#
ippon dake ja mirechau yumi yamo
B                 C#
sanbon yuuki hyakubai

CHORUS
D      E       F#m
konomichi aruiteku yo
D        E       A
ke washii michi demo
D          E       F#m
bokutachi kokoro awaseru toki
D        E         A
nani ka ga kawaru yo

A A A AAA D D D DDD A A A AAA D D E E

VERSE
A          F#m
kaigan oshi yoseru nami
     D              A
onaji koto kurikaeshiteru
B       C#        D#m        B
anna ni kataku kanjou na iwa mo
B              C#
MOAI zou ni shichau

BRIDGE
B               C#
bokura shizen sore no ichibubun
B                 C#
chicchakute kawaii yo

CHORUS
D      E       F#m
kono michi aruitekeba
D        E       A
subete ga kirameku
D          E       F#m
sokora juu ni matteru fushigi
D        E         A
SHAWAA mitai da ne

SOLO
-------------|-------------------------||------------------------------------|
------7bvvr7-|-------------------------||------------------------------------|
------7bvvr7-|-7-7-7---2-2-2-----------||-7-7-7---2-2-2----------------------|
-------------|-7-7-7---2-2-2---4-4-----||-7-7-7---2-2-2---4-2-4-2-4----------|
-------------|-5-5-5---0-0-0---4-4-----||-5-5-5---0-0-0---4-2-4-2-4----------|
-5-5---------|-----------------2-2-----||-----------------2-0-2-0-2----------|
 							x2

-----||--------------------------------------|-------------------------------|
-----||-17-17--16---16161616--13-13--12vvvvv-|-------------------------------|
-----||-16-16--16---16161616--12-12--12vvvvv-|-------------------------------|
-----||--------------------------------------|-------------------------------|
-----||--------------------------------------|-------------------------------|
-----||--------------------------------------|-------------------------------|


D      E       F#m
kono michi aruiteku yo
D        E       A
nani ga arou to mo
D          E       F#m
boku tachi chikara awaseta toki
D        E         A
nani ka ga mieru sa

D      E       F#m
kono michi aruitekeba
D        E       A
subete ga kirameku
D          E       F#m
sokora juu ni matteru fushigi
D        E         A
SHAWAA mitai da ne

D      E       F#m
sokora juu ni hajiketeru mirai
D        E       A
kono te de tsukamou

A A A AAA D D D DDD x4
A
Tap to rate this tab
 
# A B C D E F G H I J K L M N O P Q R S T U V W X Y Z