Song name
# A B C D E F G H I J K L M N O P Q R S T U V W X Y Z

Buono - Rottara Rottara tab

Buono! - Rottara Rottara!
tabbed by manOutOfTime

F#5* xxx341

-------------------------------|---------------------------------------------|
-6--/7-7----6--/7-7----6--/7-7-|---------------------------------------------|
-4--/5-5----4--/5-5----4--/5-5-|---------------------------------------------|
-3--/4-4----3--/4-4----3--/4-4-|---------------------------------------------|
-------------------------------|---------------------------------------------|
-------------------------------|---------------------------------------------|
(Honto! ?)

-------------------------------|---------------------------------------------|
-6--/7-7----6--/7-7----6--/7-7-|---------------------------------------------|
-4--/5-5----4--/5-5----4--/5-5-|---------------------------------------------|
-3--/4-4----3--/4-4----3--/4-4-|---------------------------------------------|
-------------------------------|---------------------------------------------|
-------------------------------|---------------------------------------------|
(Ehh! ?)

-------------------------------|----9*---------------------------------------|
-6--/7-7----6--/7-7----6--/7-7-|------9*-------------------------------------|
-4--/5-5----4--/5-5----4--/5-5-|---------------------------------------------|
-3--/4-4----3--/4-4----3--/4-4-|---------------------------------------------|
-------------------------------|---------------------------------------------|
-------------------------------|---------------------------------------------|
Rottara     Rottara   Rottara

-------------------------------|---------------------------------------------|
-6--/7-7----6--/7-7----6--/7-7-|---------------------------------------------|
-4--/5-5----4--/5-5----4--/5-5-|---------------------------------------------|
-3--/4-4----3--/4-4----3--/4-4-|---------------------------------------------|
-------------------------------|---------------------------------------------|
-------------------------------|---------------------------------------------|
Rottara    Rottara     Rottara

F#
Kyou no bokutachi ga
B
Otona natte shimaeba
Bbm     	       D#m        G#m
Kitto mieteru mono sae mienaku natte
Shimau

--------------------|--------------------------------------------------------|
--------------------|--------------------------------------------------------|
-5--/6-6---5--/6-6--|--------------------------------------------------------|
-5--/6-6---5--/6-6--|--------------------------------------------------------|
-3--/4-4---3--/4-4--|--------------------------------------------------------|
--------------------|--------------------------------------------------------|
Rottara    Rottara

F#5       F#5*
Kyou made bokutachi ga
B5       Bb5
Uchuu ni natte sagashita
G#5		       D#5        G#5
Mono wa honto wa ittai nanda ttan darou

--------------------|--------------------------------------------------------|
--------------------|--------------------------------------------------------|
-5--/6-6---5--/6-6--|--------------------------------------------------------|
-5--/6-6---5--/6-6--|--------------------------------------------------------|
-3--/4-4---3--/4-4--|--------------------------------------------------------|
--------------------|--------------------------------------------------------|
Rottara x 2


B5  Bb5     D#5
Dareka ga itta
B5            Bb5         D#5
"shiawase ni naru tame umare,
G#5                                              C#5
Soshite dareka wo shiawase ni suru tame ikite yukun da"

-----------------------------------------------------------------------------|
-11tr-12tr-13tr-14tr\2-------------------------------------------------------|
-----------------------------------------------------------------------------|
-----------------------------------------------------------------------------|
-----------------------------------------------------------------------------|
-----------------------------------------------------------------------------|

F#
Dore kurai
     Bbm
Mune ippai no ai wo
D#m
Dore kurai
     Bbm
Mune ippai no ai wo
B         Bbm    G#m          D#m C#
Kakaetara bokura tsutaerareun darou

F#
Kore kurai
     Bbm
Mune ippai no ai de
D#m
Kore kurai
     C#  Bbm
Mune ippai no ai de
B        Bbm
Kimi wo dakishimeta sono toki ni
G#m D#m
Futari kanji ta shiawase

G#5 G#5 G#5 G#5 C#5 C#5 C#5 C#5

F5-F#5F#5 F5-F#5F#5 F5-F#5F#5
Rottara x 3

(Nande?)

F5-F#5F#5 F5-F#5F#5 F5-F#5F#5
Rottara x 3

----------------------------------4------------------------------------------|
----------------------------------6------------------------------------------|
------------2---------------------6------------------------------------------|
----2-3-4-------4-2---------------6------------------------------------------|
--4-------4---------4-3-2---------4------------------------------------------|
-----------------------------5-2---------------------------------------------|

F#5       F#5*
Hitori ja mienai kedo
B5       Bb5
Futari nara mieteita
Bb5		       D#5        G#5
Mono wa kon nani takusan arutte shira naka ttan da

--------------------|--------------------------------------------------------|
--------------------|--------------------------------------------------------|
-5--/6-6---5--/6-6--|--------------------------------------------------------|
-5--/6-6---5--/6-6--|--------------------------------------------------------|
-3--/4-4---3--/4-4--|--------------------------------------------------------|
--------------------|--------------------------------------------------------|
Rottara x 2

-2---------6----------------------------6---------/9-----------4-------------|
-------2---------7--7---------7---------------7------------9---------4-------|
-----3---------8----------7---------8-------8-----------10---------4---------|
---4---------8----------9---------9-------8----------11----------6-----------|
----------------------9---------9--------------------------------------------|
-----------------------------------------------------------------------------|
 F#        D#m      Bbm      B          D#m       C#          G#m

Played Over:
Te to te wo tsunage ba
Kanji rareru nani ka
Soba ni ire ba zutto kienai mono ga hoshii

--------------------|---------------------------------------------------------|
--------------------|---------------------------------------------------------|
-5--/6-6---5--/6-6--|---------------------------------------------------------|
-5--/6-6---5--/6-6--|---------------------------------------------------------|
-3--/4-4---3--/4-4--|---------------------------------------------------------|
--------------------|---------------------------------------------------------|
Rottara x 2

B5   Bb5    D#5
Tanpopo no hana
B5   Bb5    D#5
Mitai ni fuke ba ton de iku
G#5                          C#5
Ryuusei no you ni yozora he isshun de kie te iku

------------------------------------------------------------------------------|
------------------------------------------------------------------------------|
-3tr-4tr-8tr-6tr--------------------------------------------------------------|
------------------------------------------------------------------------------|
------------------------------------------------------------------------------|
------------------------------------------------------------------------------|

F#
Dore kurai
     Bbm
Yume ippai no hibi wo
D#m
Dore kurai
     C#
Yume ippai no hibi wo
B        Bbm       G#m          D#m  C#
Ano hi bokutachi wa hashiri nuketan darou

F#
Are kurai
     Bbm
Yume ippai no hibi ni
D#m
Are kurai
     C#  Bbm
Yume ippai no hibi ni
B        Bbm
Kimi wo dakishimeta hazu na no ni
G#m          C#
Futari naku shita shiawase

G#5 G#5 G#5 G#5 C#5 C#5 C#5 C#5

Solo
----------------------------|-------------------|----------------------------|
----------------------------|-------------------|----------------------------|
----------------------------|-------------------|----------------------------|
---2---2---2----------------|---2---2---2---2---|----------------------------|
-4---4---4---4-3-2----------|-4---4---4---4-----|----------------------------|
-------------------5-2--x2--|----------------x6-|----------------------------|

-19b20r19-17------------------------------------|-----------------------------|
--------------19b20r19-17-----------------------|-----------------------------|
--------------------------18b19r18-16----16-18--|-----------------------------|
--------------------------------------18--------|---2---2---2-----------------|
------------------------------------------------|-4---4---4------4-3-2--------|
-------------------------------------------x4---|----------------------5-2----|vvv

B5  Bb5     D#5
Dare ka ga itta
B5  Bb5     D#5
"shiawase ni naru tame umare,
G#m         				       C#
Soshite dareka wo shiawase ni suru tame ikite ikun da"

-----------------------------------------------------------------------------|
-----------------------------------------------------------------------------|
-3tr-4tr--5tr/17-------------------------------------------------------------|
-----------------------------------------------------------------------------|
-----------------------------------------------------------------------------|
-----------------------------------------------------------------------------|

F#
Dore kurai
     Bbm
Mune ippai no ai wo
D#m
Dore kurai
     C#
Mune ippai no ai wo
B        Bbm       G#m          D#m  C#
Kakaertara bokura tsutaerarerun darou

F#
Kore kurai
     Bbm
Mune ippai no ai de
D#m
Kore kurai
     C#  Bbm
Ippai no ai de
B        Bbm
Kimi wo dakishimeta sono toki ni
G#m          C#
Futari kanji ta shiawase

F5-F#5F#5 F5-F#5F#5 F5-F#5F#5
Rottara x 3

(Nande?)

F5-F#5F#5 F5-F#5F#5 F5-F#5F#5 F5-F#5F#5 F5-F#5F#5 F5-F#5F#5
Rottara x 6

(Honto! ?)

Rottara x 21
(i play this over the Rottaras. Sounds ok.
-----------------|--------------|--------------------------------------------|
-10tr-12tr-------|--------------|--------------------------------------------|
-----------11tr--|-9tr11t-------|--------------------------------------------|
-----------------|---------11tr-|--------------------------------------------|
-----------------|--------------|--------------------------------------------|
-----------------|--------------|--------------------------------------------|

Fuu~
Tap to rate this tab
 
# A B C D E F G H I J K L M N O P Q R S T U V W X Y Z