Song name
# A B C D E F G H I J K L M N O P Q R S T U V W X Y Z

Buono - Kataomoi chords

Highlighted       Show chord diagrams
Buono - Kataomoi (Unrequited Love)
tabbed by manOutOfTime
Key: Em

B         Bm        Bm7   F#m  C     Cm
Saisho wa ne Zenzen nantomo omo wa nakatta
   Cm7      B
HONTO waracchau hodo
B         Bm        Bm7   F#m  C#     C#m
Na no ni mou kizuitara Me de oikaketeiru kara
   C#m7      B      A  B
Nanka chotto kuyashiinda

A                                               E
NeGUSE tsuita kami ni shiwakucha no WAISHATSU no HIIROO
A                             B
Koisuru hitomi ni wa KIRAKIRA mabushi sugite
MOOSOO zenkai Tomerarenai

C         D         Bm    Em
Hitori de miageru fuyu no seiza wo
C         D         Bm    Em
Tameiki no ito de musun de
C         D         Bm    Em
Nandomo nandomo namae wo yobu kedo
    C         D
Todokanai KATAOMOI
         Em  C     Em    C   D
Kurushikute    Itsumo

Em  Bm  Em

Em-D

B         Bm        Bm7   F#m  C#     C#m
Tomodachi no dare ni mo ittenai kara
   C#m7      B
Tabun minna BIKKURI suru
B         Bm        Bm7   F#m  C#     C#m
Kaerimichi sarigenaku mae wo aruitari toka ne
   C#m7      B      A    B
Kanari namidagumashii desho

A                                               E
Futarikiri ni naru to kitto nani mo hanasenai kuse ni
A                             B
Miteru dake ja TSURAI Dondon yokubari ni naru
BAKUHATSU sunzen Tomerarenai

C         D         Bm    Em
Shuugou shashin no nakisou na kao wa
C         D         Bm    Em
Futari no basho ga toosugite
C         D         Bm    Em
Nandomo nandomo furikaeru kedo
    C         D
Todokanai KATAOMOI
         Em
Itsumademo

SOLO
----14bbbb/15\14-----------------8-|----------------------------|-------------|
-12--------------12--/1010-88-10---|-12tr\-/8tr\--2-0-2/22-21v--|-------------|
-----------------------------------|----------------------------|-------------|
-----------------------------------|----------------------------|-------------|
-----------------------------------|----------------------------|-------------|
-----------------------------------|----------------------------|-------------|
C    D-Em
C    Bm

A                                               E
NeGUSE tsuita kami ni shiwakucha no WAISHATSU no HIIROO
A                             B
Koisuru hitomi ni wa KIRAKIRA mabushi sugite
MOOSOO zenkai Tomerarenai

C         D         Bm    Em
Hitori de miageru fuyu no seiza wo
C         D         Bm    Em
Tameiki no ito de musun de
C         D         Bm    Em
Nandomo nandomo namae wo yobu kedo
    C         D
Todokanai KATAOMOI
         Em  C     Em    C   D
Kurushikute    Itsumo

-----------------------------------/15---14-12-------14-\5vvvvvvv/10tr-------|
-----------------------/10-12-10---------------15-12-------------------------|
-----------------7-9---------------------------------------------------------|
------------7-9--------------------------------------------------------------|
-/9--7-9-10------------------------------------------------------------------|
-----------------------------------------------------------------------------|
C    Em
C    Em
C
Tap to rate this tab
 
# A B C D E F G H I J K L M N O P Q R S T U V W X Y Z