Buono - Janakya Mottainai tab

Buono!
Janakya Mottainai!
tabbed by manOutOfTime (neil_willey @ hotmail.com)

----------------------------------------|
----------------------------------------|
7-7-xxx-5-7-xxxx-5-7--xxxx-5-7-7-xxxx-5-|
7-7-xxx-5-7-xxxx-5-7--xxxx-5-7-7-xxxx-5-|
5-5-xxx-3-5-xxxx-3-5--xxxx-3-5-5-xxxx-3-|
----------------------------------------|
 riff            		  x4

after 2nd riff:
-----------------------------------------------------------------------------|
-----------------------------------------------------------------------------|
-----------5-7---------------------------------------------------------------|
-----3-5-7---------5h6p5-3-5-3-----------------------------------------------|
-5v----------------------------5vvvv-----------------------------------------|
---------------x3------------------------------------------------------------|
pm===========>


D          Dm                D
Araamu jiriri beddo kara hirari
               Dm    A           D
Maegami wo kururi koode wa bacchiri
D             Dm	         G
Gurosu de kirari asa gohan bacchiri
              F        C         Bb
Onna no ko wa are kore isogashii no
      Dm            Bb A
haran ga (haran ga) banjoo!!


Dakedo
  D  A       D
Mune hatte yukou
  A           G             A
Wagamama demo ii desho ne?! Sou desho?
  G            A
Suki na koto dake ga suki
D     A            D      G           Gm
Zekkoochoo saa harikitte kyou mo sutaato
     D           Dm
waratteru hou ga ii
  A           D
Janakya mottainai jan
Dm            D
Janakya mottainai


D          Dm                D
Dasshu de kurari ano hito ni dokiri
               Dm    A           D
raibaru ga girari tsumazuite kokeri
D          Dm                G
Tesuto sappari peke maaku zurari
              F        C         Bb
onna no ko wa itsu demo tafu janakucha
    Dm          Bb  A
Kantan (Kantan) meiryoo!!

Dakara
  D  A       D
Massugu ni yukou
  A           G             A
subette mo ii desho ne?! Sou desho?
  G            A
Ikeru tokoro made ikou
D     A            D      G           Gm
Kinou no tesuto yori mo ashita no ranchi
     D           Dm
Maemuki ga ichiban
  A           D
Sore ja dame kana?
Dm           D
Sore de ii jan

SOLO
------------------------------|---------------------|-----------------------|
-16b18vv---18-16p15-16-15brbr-|-13-15b--1315b-1315b-|-13-15b--13p11-13------|
------------------------------|---------------------|------------------14v--|
------------------------------|---------------------|-----------------------|
------------------------------|---------------------|-----------------------|
------------------------------|---------------------|-----------------------|


---------------------------------|----------------------------------------|---|
---------------------------------|----------------------------------------|---|
-16b17-171717-17\16\14\12\10-----|-7/10-10----10----10-12-12b-12101210----|---|
-16b17-----------------------12v-|-7/10-10----10-12--------------------12-|---|
---------------------------------|---------12-----------------------------|---|
---------------------------------|----------------------------------------|---|


-17b18---------------------------|--------------------1818-16-18b20-16-----|--|
-------19------------------------|-----------------17---------18b20----18v-|--|
----------17v--14-15v--14-15-15b-|-15-14-----14-17-------------------------|--|
---------------------------------|-------15--------------------------------|--|
---------------------------------|--------------------------------------------|
---------------------------------|-----------------------------------------|--|

-t-------t-------t----t-------t-------t--|-t--------t--------t----------------|
-11-8-10-11-8-10-11---13-8-10-13-8-10-13-|-18-15-17-18-15-17-18---------------|
-----------------------------------------|------------------------------------|
-----------------------------------------|----------------------x3------------|
-----------------------------------------|------------------------------------|
-----------------------------------------|------------------------------------|

-/20brbrbr--20brb22vvv--|-----------------------------------------------------|
-/20brbrbr--20brb22vvv--|-----------------------------------------------------|
------------------------|-----------------------------------------------------|
------------------------|-----------------------------------------------------|
------------------------|-----------------------------------------------------|
------------------------|-----------------------------------------------------|

Dakara
D    A         D
Mune hatte yukou
  A           G             A
Wagamama demo ii desho ne?! Sou desho?
  G            A
Suki na koto dake ga suki
D     A            D      G           Gm
Zekkoochoo saa harikitte kyou mo sutaato
     D           Dm
waratteru hou ga ii
  A           D
Janakya mottainai jan
Dm            D
Janakya mottainai
Tap to rate this tab
 
# A B C D E F G H I J K L M N O P Q R S T U V W X Y Z