Song name
# A B C D E F G H I J K L M N O P Q R S T U V W X Y Z

Buono - Deep Mind tab

Deep Mind
by Buono!
tabbed by manOutOfTime

----------------------------------|-----------------|----------------------|
-9991010101111111121212-/16161616-|-----------------|----------------------|
----------------------------------|-9-888888888888--|----------------------|
----------------------------------|-9-888888888888--|----------------------|
----------------------------------|-7-666666666666--|----------------------|
---------------------------x3-----|-----------------|----------------------|
*Intro*

-----------------|-----------------|-----------------|----------------|----|
-----------------|-----------------|-----------------|----------------|----|
-----------------|-----------------|-6-------6-------|-8-----88----8--|----|
-----------------|-----------------|-6-------6-------|-8-----88----8--|----|
-----------------|-----------------|-4-------4-------|-6-----66----6--|----|
-4444444444444444|-4444444444444444|-----------------|----------------|----|
Hitomi ni hison da fukakai no egao me wo sora shite shimatta

-----------------|-----------------|-----------------|----------------|----|
-----------------|-----------------|-----------------|----------------|----|
-----------------|-----------------|-6-------6-------|-8-------8------|----|
-----------------|-----------------|-6-------6-------|-8-------8------|----|
-----------------|-----------------|-4-------4-------|-6-------6------|----|
-4444444444444444|-4444444444444444|-----------------|----------------|----|
Hontou no kimochi wo kakushiteru no nara nozoite mitai keredo

-----------------|-----------------|-----------------|----------------|----|
-8---9-9-9-9-----|-8-8--9-9-9-9----|-----------------|----------------|----|
-8---8-8-8-8-----|-8-8--8-8-8-8----|--------9----9---|-10-10---9------|----|
-8---10101010----|-8-8--10101010---|-----10---10-----|-10-10---10-----|----|
-----------------|-----------------|-----------------|----------------|----|
-----------------|-----------------|-----------------|----------------|----|
Ah

---------------------|----------------------|---------------------|--------|
---------------------|----------------------|---------------------|--------|
-6------6-6/8------8-|8\5------5-5/6------6-|-6------6-6/8------8-|--------|
-6------6-6/8------8-|8\5------5-5/6------6-|-6------6-6/8------8-|--------|
-44444444-4/66666666-|6\33333333-3/44444444-|-44444444-4/66666666-|--------|
---------------------|----------------------|---------------------|--------|
Zenaku no kuteku de tachi zukushi

-------------------------|---------------------|----------------------|----|
-6p-6p-6p-6p-6p-6p-6-444-|---------------------|----------------------|----|
-5p-5p-5p-5p-5p-5p-5-333-|-6------6-6/8------8-|8\5------5-5/6------6-|----|
-3p-3p-3p-3p-3p-3p-3-111-|-6------6-6/8------8-|8\5------5-5/6------6-|----|
-------------------------|-44444444-4/66666666-|6\33333333-3/44444444-|----|
-------------------------|---------------------|----------------------|----|
                           Miekakure suru yami

------------------|------------------|-------------------------------------|
------------------|------------------|-------------------------------------|
-6---3-3-3-35-5-5-|-6---7---8---9----|-------------------------------------|
-6---3-3-3-35-5-5-|-6---7---8---9----|-------------------------------------|
-4-3-1-1-1-13-3-3-|-4---5---6---7----|-------------------------------------|
------------------|------------------|-------------------------------------|
 Shinkokyuu shinagara  Hikari wo mitsuke dase

-||-----------------|----------------|--------------|-8tr---9tr-11tr-||----|
-||-----------------|----------------|-6--8--9------|----------------||----|
-||-5-55555555-5-6--|-5-55555555-5-6-|----------8---|----------------||----|
-||-5-55555555-5-6--|-5-55555555-5-6-|--------------|----------------||----|
-||-3-33333335-3-4--|-3-33333333-3-4-|--------------|----------------||----|
-||-----------------|----------------|--------------|----------------||----|
Zettai tokeru nazo no kagi wo sagasou                Datte bokura wa nakama
Nankou furaku na fuan osotte kite mo            Tachi to marazu ni hashirou

-----------------------------------|
-9991010101111111121212------------|
-----------------------------------|
-----------------------------------|
-----------------------------------|
---------------------------x4------|
Dont stop! Dont stop! Lets go!

Seijaku no kanata kyoumei suru oto sotto mimisuma shikatta

-----------------|-----------------|-----------------|----------------|----|
-----------------|-----------------|-----------------|----------------|----|
-----------------|-----------------|-6-------6-------|-8-------8------|----|
-----------------|-----------------|-6-------6-------|-8-------8------|----|
-----------------|-----------------|-4-------4-------|-6-------6------|----|
-4444444444444444|-4444444444444444|-----------------|----------------|----|
Dareka no kokoro no oku no dokoku ga kono kara to furuwa seru

-----------------|-----------------|-----------------|----------------|----|
-8---9-9-9-9-----|-8-8--9-9-9-9----|-----------------|----------------|----|
-8---8-8-8-8-----|-8-8--8-8-8-8----|--------9----9---|-10-10---9------|----|
-8---10101010----|-8-8--10101010---|-----10---10-----|-10-10---10-----|----|
-----------------|-----------------|-----------------|----------------|----|
-----------------|-----------------|-----------------|----------------|----|
Ah

---------------------|-------------------------------|
---------------------|----------------------6-6h7p6--|
-6------6-6/8------8-|8\5------5-5/6------6---------6|
-6------6-6/8------8-|8\5------5-5/6------6----------|
-44444444-4/66666666-|6\33333333-3/44444444----------|
---------------------|-------------------------------|
Russian roulette saa

---------------------|-----------|
---------------------|-----------|
-6------6-6/8------8-|-----------|
-6------6-6/8------8-|-----------|
-44444444-4/66666666-|-----------|
---------------------|-----------|
itsudatte

-------------------------|---------------------|----------------------|----|
-6p-6p-6p-6p-6p-6p-6-444-|---------------------|----------------------|----|
-5p-5p-5p-5p-5p-5p-5-333-|-6------6-6/8------8-|8\5------5-5/6------6-|----|
-3p-3p-3p-3p-3p-3p-3-111-|-6------6-6/8------8-|8\5------5-5/6------6-|----|
-------------------------|-44444444-4/66666666-|6\33333333-3/44444444-|----|
-------------------------|---------------------|----------------------|----|
                           Ima wo seiippai

------------------|------------------|-------------------------------------|
------------------|------------------|-------------------------------------|
-6---3-3-3-35-5-5-|-6---7---8---9----|-------------------------------------|
-6---3-3-3-35-5-5-|-6---7---8---9----|-------------------------------------|
-4-3-1-1-1-13-3-3-|-4---5---6---7----|-------------------------------------|
------------------|------------------|-------------------------------------|
 Ikite yukutte wa rito Power shoumou suru kedo

-||-----------------|----------------|--------------|-8tr---9tr-11tr-||----|
-||-----------------|----------------|-6--8--9------|----------------||----|
-||-5-55555555-5-6--|-5-55555555-5-6-|----------8---|----------------||----|
-||-5-55555555-5-6--|-5-55555555-5-6-|--------------|----------------||----|
-||-3-33333335-3-4--|-3-33333333-3-4-|--------------|----------------||----|
-||-----------------|----------------|--------------|----------------||----|
   Zettai makenai tsuyoi kimochi shinjite         Kesshite ni getari shinai
   Jinjou janai konnan demo bokura                Kitto no Rikoe Rareru yo


-4----4----4----|-4----4----4---|-4----4----4----|-4----4-4h6p4---|--------|
----------------|---------------|----------------|--------------4-|--------|
----------------|---------------|----------------|----------------|--------|
---66---66---6--|---55---55---5-|---33---33---3--|----------------|--------|
---44---44---4--|---33---33---3-|---11---11---1--|---66-----------|--------|
----------------|---------------|----------------|---44-----------|--------|
   PM   PM   PM     PM   PM   PM    PM   PM   PM     PM
Kanjou mado wasu mienai nanika ni

-4----4----4----|-4----4----4---|-4----4----4----|-4----4-4p3h4-6-|--------|
----------------|---------------|----------------|----------------|--------|
----------------|---------------|----------------|---33-----------|--------|
---66---66---6--|---55---55---5-|---33---33---3--|---11-----------|--------|
---44---44---4--|---33---33---3-|---11---11---1--|----------------|--------|
----------------|---------------|----------------|----------------|--------|
   PM   PM   PM     PM   PM   PM    PM   PM   PM     PM
Tomadoi obiete naku koto mo arukedo

-4---4----4----|-4----4----4---|-4----4----4----|-4----4-4h6p4---|---------|
---------------|---------------|----------------|--------------4-|---------|
---------------|---------------|----------------|----------------|---------|
--66---66---6--|---55---55---5-|---33---33---3--|----------------|---------|
--44---44---4--|---33---33---3-|---11---11---1--|---66-----------|---------|
---------------|---------------|----------------|---44-----------|---------|
  PM   PM   PM     PM   PM   PM    PM   PM   PM     PM
Bokura ga kono yo ni ikiru shimei wa

---------------|-/6-666666-----|-/9-brbrbrbr----|-10brbrbrbrbr----|
-4/6hhh--------|---------------|----------------|-----------------|
---------------|---------------|----------------|-----------------|
---------------|---------------|----------------|-----------------|
---------------|---------------|----------------|-----------------|
---------------|---------------|----------------|-----------------|
 Kitto aru hazusa

|---------------|---------------|---------------|-----------------|--|
|---------------|---------------|---------------|-----------------|--|
|-5-------------|-6-------------|-7-------------|-88------xxxxxxx-|--|
|-5-------------|-6-------------|-7-------------|-88------xxxxxxx-|--|
|-3-------------|-4-------------|-5-------------|-66------PickScrape-|
|---------------|---------------|---------------|-----------------|--|
 Zettai tokeru nazo no kagi wo saga

---------------|-8tr----9tr-11tr-|
-6--8--9-------|-----------------|
----------8----|-----------------|
---------------|-----------------|
---------------|-----------------|
---------------|-----------------|
sou             Datte bokura wa nakama

-||-----------------|----------------|--------------|-8tr---9tr-11tr-||----|
-||-----------------|----------------|-6--8--9------|----------------||----|
-||-5-55555555-5-6--|-5-55555555-5-6-|----------8---|----------------||----|
-||-5-55555555-5-6--|-5-55555555-5-6-|--------------|----------------||----|
-||-3-33333335-3-4--|-3-33333333-3-4-|--------------|----------------||----|
-||-----------------|----------------|--------------|-----rpt x3-----||----|
Nankou furaku na fuan osotte kite     mo        Tachi to marazu ni hashirou
Zettai makenai tsuyoi kimochi shinji  te          Kesshite ni getari shinai
Jinjou janai konnan demo boku         ra           Kitto no rikoe rareru yo

||----------------------------------||
||-9991010101111111121212-----------||
||----------------------------------||
||----------------------------------||
||----------------------------------||
||------------------------rpt-x4----||
Dont stop! Dont stop! Lets go!

------------------|
------------------|
-5-6-55-6-5-6hhh--|
-5-6-55-6-5-6hhh--|
-3-4-33-4-3-4hhh--|
------------------|
Tap to rate this tab
# A B C D E F G H I J K L M N O P Q R S T U V W X Y Z