Guitaretab - guitar tabs
Song name
# A B C D E F G H I J K L M N O P Q R S T U V W X Y Z

Burden Brothers - Shine tab

Gtr 1
Intro
E--------------------------------------------|
B--------------------------------------------|
G--------------------------------------------|
D--------------5b-5--------------------------|
A----------5-7------7-4-5-7------------------|This tab is completely correct
E----5-5-5-----------------------------------|X8

Gtr 2: do this only once after Gtr 1 plays intro twice
E----------------------------------|
B----------------------------------|
G----------------------------------|
D---7-7---------------------7------|
A---7-7---------------------7------|
E---5-5---------------------5------|

Chorus: Gtr 1 & 2
E------------------------------|X4
B------------------------------|
G--------5-5-5---------5-5-----|
D-7-7-7--5-5-5-7-7-7--5-5-5-5--|
A-7-7-7--3-3-3-7-7-7--3-3-5-5--|
E-5-5-5--------5-5-5------3-3--|

Verse 2 both guitars
E------------------------|X8
B------------------------|
G-------5-5-5--------5---|
D-7-7-7-5-5-5-7-7-7-5-6--|
A-7-7-7-3-3-3-7-7-7-3-6--|
E-5-5-5-------5-5-5---4--|

Bridge
E------------------------------------|
B------------------------------------|
G-777777777777-7-6-5-------------5---|
D-777777777777-7-6-5-3-----3h5/7-----|
A-555555555555-5-4-3-3--3/5----------|
E---------------------1--------------|

Chorus

Verse only guitar one

Both Guitars Bridge

Chorus
[ Tab from: http://www.guitaretab.com/b/burden-brothers/148575.html ]
Solo 1: Gtr 1
E-------------------------------------15-17b-17-15--------------15-17b-17-15--------|
B------------------------15-17b-17-17--------------17-15-17-17---------------17-15--|
G-2br--------------15-14------------------------------------------------------------|
D----2------------------------------------------------------------------------------|
A------------12-13------------------------------------------------------------------|
E-------12-15-----------------------------------------------------------------------|

E----------------------22b(24-|-]
B-----------------------------|
G-----------------------------|
D-----------------------------|
A------12------12-------------|
E-12-15---12-15---12----------|

Solo 2 Guitar 2
E
B-------------15h17--15h17---15h17---15h17H-b(20----------------------|
G-7bH-t14--16------16------16------16--------------7w-9w-7w-9w-7w-9w--|
D
A
E

                                                                                         
                  *
E---------------------------------------------------------18--15-|   H
B-12-15-12/10--12-10----12-10----10-8/3/5--12-12/15-15------18---|b H
G---------------------12-------12--------------------------------|
D
A
E

Backing Solo Rythm Guitar IN CHORDS

E    C       E        C G


Next Verse for Guitar 2 is same
For Guitar 1 after guitar 2 does riff twice, do riff an octave  up.

CHorus

Bridge (End on F)
Related for Shine tab
Shine chords by Burden Brothers