Song name
# A B C D E F G H I J K L M N O P Q R S T U V W X Y Z

Burden Brothers - Rise And Fall Of Dirty Sanchez tab

Tablatura de NICO M. (nicokbbl@hotmail.com)

Artista: Burden Brothers
Cancion: The Rise and Fall of Dirty Sanchez	
Album: The 2nd EP




Intro
1|----5~----------------5~-------5~--|
2|----5~-------5~-------5~-------5~--|
3|----5~-------5~-------5~-------5~--|
4|-------------7~----------------7~--| 
5|-----------------------------------|
6|-----------------------------------|



1|-------------|
2|-------------|
3|-------------|
4|-------------|
5|-----5BRp3---|
6|-------------|

 
Parte 1
1|---------------------------------------------------------------------------------|
2|---------------------------------------------------------------------------------|
3|---------------------------------------------------------------------------------|x4
4|---------------------------------------------------------------------------------| 
5|---------------------------------------------------------------------------------|
6|---3--5---0--3--5---0--3--5---0--3--5---0--3--5---0--3--5---0--3--5---0--3h5--2--|


Parte 2
1|----------------------------------------|
2|----------------------------------------|
3|----------------------------------------|
4|----------------------------------------|x4 Continue with the same from 
5|----------------------------------------|there.                       
6|---0--5--0--0--6--0--0--8--0--0--10--0--|


Play the D(fret 10,low E String) 5 times, then play:
1|------------------------------------------|
2|------------------------------------------|
3|------------------------------------------|
4|------------------------------------------|
5|--13-13-13-13-13----12-12-12-12-12-12--12-|
6|--11-11-11-11-11----10-10-10-10-10-10--10-|


Coro
1|----------------------------|
2|----------------------------|
3|---------7--6--8--9--10--11-|x4
4|---7--8--7--6--8--9--10--11-| 
5|---7--8--5--4--6--7---8---9-|
6|---5--6---------------------|




Fianl
1|---12--|
2|---12--|
3|---12--|
4|---14--|
5|-------|
6|-------|
Tap to rate this tab
# A B C D E F G H I J K L M N O P Q R S T U V W X Y Z