Song name
# A B C D E F G H I J K L M N O P Q R S T U V W X Y Z

Burden Brothers - If Youre Going To Heaven tab

If you're going to heaven
Burden brothers
The astrocreep's interperetation.

If you're going to heaven,
and you think you know the way...


e|--2--2--2-0--4--4--6-0--------------------------------------------------|
b|--1--1--1-0--5--5--5-0--2--2-x--7--7-7-5-5------------------------------|
g|--2--2--2-0--4--4--4-0--2--2-x---0--0-0--0-0----------------------------|X2
d|--0--0--0-0--6--6--6-0--2--2-x--7--7-7-5-5------------------------------|
a|-------------4--4--4----0--0-x------------------------------------------|
e|------------------------------------------------------------------------|

Please show me the right direction...
                                                                *
e|--2--2--x-x--4--4--x-x------------------------------------------------|
b|--1--1--x-x--5--5--x-x--2--2-0--4--4----------------4--4------4-------|
g|--2--2--x-x--4--4--x-x--2--2-0--5--5-x-x--2--2-x-x--5--5-x-x--6-------|
d|--0--0--x-x--6--6--x-x--2--2-0--6--6-x-x--4--4-x-x--6--6-x-x--6-------|
a|-------------4--4-------0--0-0--6--6-x-x--4--4-x-x--6--6-x-x--4-------|
e|--------------------------------4--4------2--2------4--4------4-------|

*(this chord is stummed out a bit)

You know I don't need your attention...

e|----------------------------------------------------------------------|
b|----------------------------------------------------------------------|
g|--6--6-x-x-6--6-x-x-x-x-----------------------------------------------|
d|--6--6-x-x-6--6-x-x-x-x-4--4-x-x-4-4-4--4--2--------------------------|
a|--4--4-x-x-4--4-x-x-x-x-4--4-x-x-4-4-4--4--2--------------------------|
e|------------------------2--2-x-x-2-2-2--2--0--------------------------|

I don't need your pity or your greif...

e|----------------------------------------------------------------------|
b|----------------------------------------------------------------------|
g|--6--6-x-x-6--6-x-x-x-x-----------------------------------------------|
d|--6--6-x-x-6--6-x-x-x-x-4--4-x-x-4-4-4--4--2--------------------------|
a|--4--4-x-x-4--4-x-x-x-x-4--4-x-x-4-4-4--4--2--------------------------|
e|------------------------2--2-x-x-2-2-2--2--0--------------------------|


I'm not a slave to your attention...

e|--2--2--x-x--4--4--x-x------------------------------------------------|
b|--1--1--x-x--5--5--x-x--2--2-0--4--4----------------4--4------4-------|
g|--2--2--x-x--4--4--x-x--2--2-0--5--5-x-x--2--2-x-x--5--5-x-x--6-------|
d|--0--0--x-x--6--6--x-x--2--2-0--6--6-x-x--4--4-x-x--6--6-x-x--6-------|
a|-------------4--4-------0--0-0--6--6-x-x--4--4-x-x--6--6-x-x--4-------|
e|--------------------------------4--4------2--2------4--4------4-------|

that's pretty much it, sans the solo.  these chords on the last little part are just the 
chords though, I think.  It's late and I just started copy and paste, but the voicings 
be fairly correct.
Tap to rate this tab
 
# A B C D E F G H I J K L M N O P Q R S T U V W X Y Z