Guitaretab - guitar tabs
Song name
# A B C D E F G H I J K L M N O P Q R S T U V W X Y Z

Burden Brothers - Conditional tab

Tabbed by: Shawn Klapproth
Tuning: standard (EADGBe)
Burden Brothers - Conditional


Play this through the beginning and the verses

E---0---0---0---0---0---0---0---0---|
B---3---3---3---3---2---2---2---2---|
G---0---0---0---0---0---0---0---0---|
D-----------------------------------|
A-----------------------------------|
E-0---0---0---0---0---0---0---0-----|

Curled up on the sofa

With your tail between your legs

I won't pretend that I know you

But I wish just one time

I could get inside your head

and all the treasures that you're hiding

and all your secrets never safe

are adding up to lines of frustration

I read it on your face, oh yeah

Chorus

Am
You know I love you

B7
Even when you

Bsus            Em
Run away from me

Am
And I dont wanna

B7               Em--Asus2--Em
chase you anymore

Am
So if you have to

B7
go away then

Bsus               Em
I wont make you stay

Am
Just lie awake and

B7
listen for the door

Em Asus2 Em


at the end of this chorus and at certain intervals in the
song the guitars play this pattern, we'll call it end chorus
pattern

e----------------------|
B----------------------|
G----------------------|
D-0-2-5-2--------------|
A---------0-2-5-2------|
E----------------------|

With a lack of direction

with eyes sad and red

In need of affection

you wind up on my bed, oh yeah     (play the end chorus pattern)

and all the treasures that you're hiding  (end chorus pattern)

you know they're never safe with me (end chorus pattern)

won't let you be my God

won't let you be my slave (end chorus pattern)

what else is there left to be? yeah

Chorus

Am
You know I love you

B7
Even when you

Bsus            Em
Run away from me

Am
And I dont wanna

B7               Em--Asus2--Em
chase you anymore

Am
So if you have to

B7
go away then

Bsus               Em
I wont make you stay

Am
Just lie awake and

B7
listen for the door

Em Asus2 Em

(end chorus pattern)
[ Tab from: http://www.guitaretab.com/b/burden-brothers/64585.html ]
e----------------------------------------------------------|
B----------------------------------------------------------|
G----------------------------------------------------------|
D----------------------------------------------------------|
A-10-9-12---10-9h--10-9h-7-9-4--12-7-10-9-4-4-2------------|
E----------------------------------------------------------|


E----------------------------------------------------------|
B----------------------------------------------------------|
G----------------------------------------------------------|
D----------------------------------------------------------|
A-9-10h-9h-9-9-10h-9h-9-9-10h-9h-7---9-10h-9h-9-9-10h-9h-9-|
E----------------------------------------------------------|


e----------------------------------------------------------|
B----------------------------------------------10-8-10-8-5-|
G----------------------------------------------------------|
D----------------------------------------------------------|
A-12-10-9---9-10h-9h-9-9-10h-9h-9-9-10h-9h-7---------------|
E----------------------------------------------------------|

                            quickly
e----------------------------------------------------------|
B-3--5-3-5-0---0---2---0---0-2h-3h-2h---2-5----5-7h-8h-7h--|
G----------------------------------------------------------|
D----------------------------------------------------------|
A----------------------------------------------------------|
E----------------------------------------------------------|


e----------------------------------------------------------|
B-5-7h-8h-7h---5-7-8-5-7-5--8-10-8-10----------------------|
G--------------------------------------9-7-----------------|
D------------------------------------------9-8-7-5-7----9--|
A----------------------------------------------------------|
E----------------------------------------------------------|


e------------------------------------|    Lots of Tremelo during the solo
B------------------------------------|
G------------------------------------|
D-4-5h-4-7-5-4-14s--4---9-5s---7-2s--|
A------------------------------------|
E------------------------------------|


Em Asus2 Em


chorus

Am
You know I love you

B7
Even when you

Bsus            Em
Run away from me

Am
And I dont wanna

B7               Em--Asus2--Em
chase you anymore

Am
So if you have to

B7
go away then

Bsus               Em
I wont make you stay

Am
Just lie awake and

B7
listen for the door


outro

Em Asus2 Em

Chords:
B7 - x24242
Bsus - x22442
Am - x02210
Em - 022000
Asus2 - 002200
Related for Conditional tab
Conditional chords by Burden Brothers