Song name
# A B C D E F G H I J K L M N O P Q R S T U V W X Y Z

Burden Brothers - In My Sky tab

Burden Brothers - In My Sky
Tabbed by: Shawn Klapproth
Tuning: EADGBe (standard)


I know this isn't perfect, but this is my interpretation


Intro and Verses
e------------------------------------0-0--0-0--0-0---0-0-0---------|
B------------------------------------2-2--2-2--2-2---2-2-2---------|
G---0-0-0---0-0-0---0-0-0----0-0-0---0-0--0-0--0-0---0-0-0---0-0-0-|
D---0-0-0---0-0-0---0-0-0----0-0-0-----------------2---------0-0-0-|
A---2-2-2-2-------3--------2-------0-------------------------------|
E-3---------------------------------------------------------4------|


Chorus
e---------------3-3-3-3-3-3-3-3---3-3-3---3-3-3---3-3-3------------|
B-3-3-3-3-3-3-3-3-3-3-3-3-3-3-3---3-3-3---3-3-3---3-3-3------------|
G-2-2-2-2-2-2-2-0-0-0-0-0-0-0-0---0-0-0---0-0-0---0-0-0---2-2-2----|
D-0-0-0-0-0-0-0-0-0-0-0-0-0-0-0---------2-------0---------0-0-0----|
A-0-0-0-0-0-0-0-x-x-x-x-x-x-x-x-3-------------------------0-0-0----|
E-2-2-2-2-2-2-2-3-3-3-3-3-3-3-3-------------------------2----------|

Bridge
e-------------------0-0--0-0--0-0--0-0-0-0-0-0-0-0--|
B---5-3------3------2-2--2-2--2-2--3-3-3-3-2-2-2-2--|
G-5-----5--3---5-3--0-0--0-0--0-0--0-0-0-0-0-0-0-0--|
D---2-0------0--------------------------------------|
A-3-----3--1---3-1-0--------------------------------|
E---------------------------------------------------|

end on
e-3--
B-3--
G-0--
D-0--
A-x--
E-3--
Tap to rate this tab
# A B C D E F G H I J K L M N O P Q R S T U V W X Y Z