Song name
# A B C D E F G H I J K L M N O P Q R S T U V W X Y Z

Burden Brothers - Everybody Is Easy tab

This is the single on the new album "Mercy"
any comments to crob@mythologyrules.com or meldelray45@mac.com
Intro/Verse
E   ---------------------------------------------|
B   ---------------------------------------------|
G   ---------------------------------------------|
D   ---------------------------------------------|
A   -----5-5-5-7-5-5-5-7-5-5-5---10-10-9-7-5-----|
E   -----3-3-3-3-3-3-3-3-3-3-3---8--8--7-5-3----|

pre-chorus: (stuck in the middle)
E-----------------------------------------------|
B--33333-555555---------777777------------------|
G--44444-555555-444444-777777-------------------|
D--55555-555555-555555-777777-------------------|
A--22222-333333-555555-555555-------------------|
E----------------333333-------------------------|

Twisted Riff:
A---5-3-2---5-3-2---5-3-2----|
E---------0-------1--------3-|

Chorus: We sink We swim
E-----------------------------------------------|
B---33333-555555--------777777------------------|
G---44444-555555-44444-777777-------------------|
D---55555-555555-55555-777777-------------------|
A---22222-333333-55555-555555-------------------|
E-----------------33333-------------------------|

bridge =E D C/B

In this order
Intro verse 10X
Twisted riff 1X
Intro verse 10X
pre-chorus 2X
Chorus 2X
bridge
intro verse 2X
pre chorus 2X
Chorus 2X
prechorus 2X
chorus 2X
End With twisted riff once
Tap to rate this tab
 
# A B C D E F G H I J K L M N O P Q R S T U V W X Y Z