Song name
# A B C D E F G H I J K L M N O P Q R S T U V W X Y Z

Burden Brothers - Life Between tab

Help us improve GuitareTab! Take a short survey!
Tabbed by: Aaron McKay AKA VoltanEchoes

100% correct, for questions or comments e-mail at luminoth_oracle2112@charter.net

Song: Life Between
Artist: Burden Brothers
Album: Mercy

|--------------------------------------------------------------|
|--------------------------------------------------------------|
|--------------7b==9-----------5h7---9--5-----------5h7---9--7-|
|-----------5--------------5h7-----------------5h7-------------|
|-3--3-3-7------------7h8------------------7h8-----------------|
|--------------------------------------------------------------|

|--------------------------------------------------------------|
|--------------------------------------------------------------|
|7b8--5h7---5h7--7b8--5h7--5h7--5h7--7b8--5-------------5vvvvvv|
|-------------------------------------------7--5----5h7--------|
|------------------------------------------------7h8-----------|
|--------------------------------------------------------------|

|----------------------|
|---------8------------|
|--7b&H9-----9rb7------|
|----------------------|
|----------------------|
|----------------------|

Key:
b = Bend
b&H = Bend and hold
rb = Release bend
h = hammer-on
v = vibrato
Related for Life Between tab