Song name
# A B C D E F G H I J K L M N O P Q R S T U V W X Y Z

Burden Brothers - Goodnight From Chicago tab

Burden Brothers - Goodnight From Chicago
Tabbed By: Shawn Klapproth
Tuning - DADGBE


Intro

  Guitar 1
e|---------------------------------|
B|---------------------------------|
G|---------------------------------|
D|---------------------------------|
A|-2-2-2-2-2-2-2-2-0-0-0-3-3-3-3-0-|
D|-5-5-5-4-4-4-4-4-3-3-3-2-2-2-2-0-|
 | P.M.- - - - - - - - - - - - - -
 |                                   x2
 |Guitar 2
e|---------------------------------|
B|---------------------------------|
G|---------------------------------|
D|---------------------------------|
A|---------------------------------|
D|---------------------------------|

Intro/Verse

  Guitar 1
e|---------------------------------|
B|---------------------------------|
G|---------------------------------|
D|---------------------------------|
A|-2-2-2-2-2-2-2-2-3-3-3-3-3-3-3-0-|
D|-5-5-5-4-4-4-4-4-3-3-3-2-2-2-2-0-|
 | P.M.- - - - - - - - - - - - - -
 |                                   x6
 |Guitar 2
e|---------------------------------|
B|---------------------------------|
G|---------------------------------|
D|-5-5-5-4-4-4-4-4-3-3-3-2-2-2-2-2-|
A|---------------------------------|
D|---------------------------------|
   P.M.- - - - - - - - - - - - - -

  Guitar 1
e|--------------------|
B|--------------------|
G|--------------------|
D|----------------3---|
A|-2---2-------0--3---|
D|-5---4---0-2-3--3---|
 |
 |                      x8
 |Guitar 2
e|--------------------|
B|--------------------|
G|--------------------|
D|----------------3---|
A|-2---2-------0--3---|
D|-5---4---0-2-3--3---|

Chorus

  Guitar 1
e|------------------------------------------------------------------|
B|------------------------------------------------------------------|
G|-7-7-7-7-7-7-7-7-7-7-7-7-7-7-7-7--7-7-7-5-5-5-5-5-5-5-5-5-5-5-5-5-|
D|-7-7-7-7-7-7-7-7-7-7-7-7-7-7-7-7--7-7-7-5-5-5-5-5-5-5-5-5-5-5-5-5-|
A|-5-5-5-5-5-5-5-5-5-5-5-5-5-5-5-5--5-5-5-3-3-3-3-3-2-2-2-3-3-3-3-3-|
D|------------------------------------------------------------------|
 |
 |                                                                    x2
 |Guitar 2
e|------------------------------------------------------------------|
B|------------------------------------------------------------------|
G|-7-7-7-7-7-7-7-7-7-7-7-7-7-7-7-7--7-7-7-5-5-5-5-5-5-5-5-5-5-5-5-5-|
D|-7-7-7-7-7-7-7-7-7-7-7-7-7-7-7-7--7-7-7-5-5-5-5-5-5-5-5-5-5-5-5-5-|
A|-5-5-5-5-5-5-5-5-5-5-5-5-5-5-5-5--5-5-5-3-3-3-3-3-2-2-2-3-3-3-3-3-|
D|------------------------------------------------------------------|

Intro/Verse

  Guitar 1
e|---------------------------------|
B|---------------------------------|
G|---------------------------------|
D|---------------------------------|
A|-2-2-2-2-2-2-2-2-3-3-3-3-3-3-3-0-|
D|-5-5-5-4-4-4-4-4-3-3-3-2-2-2-2-0-|
 | P.M.- - - - - - - - - - - - - -
 |                                   x6
 |Guitar 2
e|---------------------------------|
B|---------------------------------|
G|---------------------------------|
D|-5-5-5-4-4-4-4-4-3-3-3-2-2-2-2-2-|
A|---------------------------------|
D|---------------------------------|
   P.M.- - - - - - - - - - - - - -

  Guitar 1
e|--------------------|
B|--------------------|
G|--------------------|
D|----------------3---|
A|-2---2-------0--3---|
D|-5---4---0-2-3--3---|
 |
 |                      x8
 |Guitar 2
e|--------------------|
B|--------------------|
G|--------------------|
D|----------------3---|
A|-2---2-------0--3---|
D|-5---4---0-2-3--3---|

Chorus

  Guitar 1
e|------------------------------------------------------------------|
B|------------------------------------------------------------------|
G|-7-7-7-7-7-7-7-7-7-7-7-7-7-7-7-7--7-7-7-5-5-5-5-5-5-5-5-5-5-5-5-5-|
D|-7-7-7-7-7-7-7-7-7-7-7-7-7-7-7-7--7-7-7-5-5-5-5-5-5-5-5-5-5-5-5-5-|
A|-5-5-5-5-5-5-5-5-5-5-5-5-5-5-5-5--5-5-5-3-3-3-3-3-2-2-2-3-3-3-3-3-|
D|------------------------------------------------------------------|
 |
 |                                                                    x2
 |Guitar 2
e|------------------------------------------------------------------|
B|------------------------------------------------------------------|
G|-7-7-7-7-7-7-7-7-7-7-7-7-7-7-7-7--7-7-7-5-5-5-5-5-5-5-5-5-5-5-5-5-|
D|-7-7-7-7-7-7-7-7-7-7-7-7-7-7-7-7--7-7-7-5-5-5-5-5-5-5-5-5-5-5-5-5-|
A|-5-5-5-5-5-5-5-5-5-5-5-5-5-5-5-5--5-5-5-3-3-3-3-3-2-2-2-3-3-3-3-3-|
D|------------------------------------------------------------------|


  Guitar 1
e|--------------------|
B|--------------------|
G|--------------------|
D|----------------3---|
A|-2---2-------0--3---|
D|-5---4---0-2-3--3---|
 |
 |                      Play this during the solo*
 |Guitar 2
e|--------------------|
B|--------------------|
G|--------------------|
D|----------------3---|
A|-2---2-------0--3---|
D|-5---4---0-2-3--3---|

I'll tab out the solo at a later time


  Guitar 1
e|---------------------------------|
B|---------------------------------|
G|---------------------------------|
D|---------------------------------|
A|-2-2-2-2-2-2-2-2-0-0-0-3-3-3-3-0-|
D|-5-5-5-4-4-4-4-4-3-3-3-2-2-2-2-0-|
 | P.M.- - - - - - - - - - - - - -
 |                                   Play during '...goodnight from chicago'
 |Guitar 2
e|---------------------------------|
B|---------------------------------|
G|---------------------------------|
D|---------------------------------|
A|---------------------------------|
D|---------------------------------|

Chorus

  Guitar 1
e|------------------------------------------------------------------|
B|------------------------------------------------------------------|
G|-7-7-7-7-7-7-7-7-7-7-7-7-7-7-7-7--7-7-7-5-5-5-5-5-5-5-5-5-5-5-5-5-|
D|-7-7-7-7-7-7-7-7-7-7-7-7-7-7-7-7--7-7-7-5-5-5-5-5-5-5-5-5-5-5-5-5-|
A|-5-5-5-5-5-5-5-5-5-5-5-5-5-5-5-5--5-5-5-3-3-3-3-3-2-2-2-3-3-3-3-3-|
D|------------------------------------------------------------------|
 |
 |                                                                    x4
 |Guitar 2
e|------------------------------------------------------------------|
B|------------------------------------------------------------------|
G|-7-7-7-7-7-7-7-7-7-7-7-7-7-7-7-7--7-7-7-5-5-5-5-5-5-5-5-5-5-5-5-5-|
D|-7-7-7-7-7-7-7-7-7-7-7-7-7-7-7-7--7-7-7-5-5-5-5-5-5-5-5-5-5-5-5-5-|
A|-5-5-5-5-5-5-5-5-5-5-5-5-5-5-5-5--5-5-5-3-3-3-3-3-2-2-2-3-3-3-3-3-|
D|------------------------------------------------------------------|

Outro

  Guitar 1
e|-------------------------------------|
B|-------------------------------------|
G|-------------------------------------|
D|----------------3------------------3-|
A|-2---2-------0--3---2---2-------0--3-|
D|-5---4---0-2-3--3---5---4---0-2-3--3-|
 |
 |
 |Guitar 2
e|-----10-----------------10b12---10---|
B|-8-------8----------8----------------|
G|-----------7-------------------------|
D|-------------------------------------|
A|-------------------------------------|
D|-------------------------------------|


  Guitar 1
e|---------------------------------|
B|---------------------------------|
G|-5-5-5-5-5-5-5-5-5-5-5-5-5-5-5-5-|
D|-5-5-5-5-5-5-5-5-5-5-5-5-5-5-5-5-|
A|-3-3-3-3-3-3-3-3-3-3-3-3-3-3-3-3-|
D|---------------------------------|
 |
 |
 |Guitar 2
e|---------------------------------|
B|---------------------------------|
G|-5-5-5-5-5-5-5-5-5-5-5-5-5-5-5-5-|
D|-5-5-5-5-5-5-5-5-5-5-5-5-5-5-5-5-|
A|-3-3-3-3-3-3-3-3-3-3-3-3-3-3-3-3-|
D|---------------------------------|
Tap to rate this tab
# A B C D E F G H I J K L M N O P Q R S T U V W X Y Z