Guitaretab - guitar tabs
Song name
# A B C D E F G H I J K L M N O P Q R S T U V W X Y Z

Burden Of A Day - Blessed Be Our Ever After tab

Burden Of A Day-"Blessed Be Our Ever After"

this is really nice intro to play.
On this cd, Blessed be our Ever After, they use Drop d, Drop d half step down, and Drop C
I should have some of their new stuff tabbed out soon.

Tuning: Drop C

Guitar 1

D|-----------------------------------------|
A|-----------------------------------------|
F|---------14/12/10\12---------14/12/10\12-|
C|-0000000--x/-x/-x\-x-8888888--x/-x/-x\-x-|
G|-0000000-12/10/-8\10-8888888-12/10/-8\10-|
C|-0000000-------------8888888-------------|

D|--------------------------------------------------|
A|--------------------------------------------------|
F|---------14/12/10\12----------------171717/101010-|
C|-0000000--x/-x/-x\-x-10101010101010--x-x-x/-x-x-x-|
G|-0000000-12/10/-8\10-10101010101010-151515/-8-8-8-|
C|-0000000-------------10101010101010---------------|

D|-----------------------------------------|
A|-----------------------------------------|
F|---------14/12/10\12---------14/12/10\12-|
C|-0000000--x/-x/-x\-x-8888888--x/-x/-x\-x-|
G|-0000000-12/10/-8\10-8888888-12/10/-8\10-|
C|-0000000-------------8888888-------------|

D|--------------------------|
A|--------------------------|
F|---------14/12/10\12------|
C|-0000000--x/-x/-x\-x-1010-|
G|-0000000-12/10/-8\10-1010-|
C|-0000000-------------1010-|

Guitar 2
[ Tab from: http://www.guitaretab.com/b/burden-of-a-day/108920.html ]
D|-----------------------------------|
A|---------10\8\6/8---------10\8\6/8-|
F|----------x\x\x/x----------x\x\x/x-|
C|-0000000--7\5\3/5-8888888--7\5\3/5-|
G|-0000000----------8888888----------|
C|-0000000----------8888888----------|

D|--------------------------------------------|
A|---------10\8\6/8----------------131313\666-|
F|----------x\x\x/x-----------------x-x-x\xxx-|
C|-0000000--7\5\3/5-10101010101010-101010\333-|
G|-0000000----------10101010101010------------|
C|-0000000----------10101010101010------------|

D|-----------------------------------|
A|---------10\8\6/8---------10\8\6/8-|
F|----------x\x\x/x----------x\x\x/x-|
C|-0000000--7\5\3/5-8888888--7\5\3/5-|
G|-0000000----------8888888----------|
C|-0000000----------8888888----------|

D|-----------------------|
A|---------10\8\6/8------|
F|----------x\x\x/x------|
C|-0000000--7\5\3/5-1010-|
G|-0000000----------1010-|
C|-0000000----------1010-|

Guitar 1

D|---------------------------------|
A|---------------------------------|
F|---------------------------------| x4
C|-0-0-0-000-0-000-0h7h8p0-8p7p5p0-|
G|-0-0-0-000-0-000-----------------|
C|-0-0-0-000-0-000-----------------|
   . . . ... . ...

Guitar 2

D|-----------------------------------|
A|-----------------------------------|
F|-----------------------------------| x4
C|-0-0-0-000-0-000-0h8h10p0-10p8p7p0-|
G|-0-0-0-000-0-000-------------------|
C|-0-0-0-000-0-000-------------------|
   . . . ... . ...

Both Guitars end on as you know.

D|----|
A|----|
F|----|
C|-0~-|
G|-0~-|
C|-0~-|
Related for Blessed Be Our Ever After tab
×
Blessed Be Our Ever After