Song name
# A B C D E F G H I J K L M N O P Q R S T U V W X Y Z

Burden Of A Day - Remember tab

-------------------------------------------------------------------------------
			     REMEMBER – Burden Of A Day

just noticed no one posted tabs for this. It’s a really good song. Some lead parts are missing.

 INTRO
|----------------------|---------------------|
|----------------------|---------------------|
|---------------9------|---------------------|
|--------------7—-(2x)-|-33333333-55555555---|
|-----------7-9--------|-33333333-55555555---| (2x)
|-7777-77-7------------|-33333333-55555555---|
  ...       . ..

|--------------------------------------------|
|--------------------------------------------|
|---------------------------171717-161616----|
|-3-3-3~---3-3-3~---33333--------------------|
|-3-3-3~---3-3-3~---33333---151515-141414----|
|-3-3-3~---3-3-3~---33333--------------------|
                    ....
 VERSE              
|---------------------------------------------------------------------------|
|---------------------------------------------------------------------------|
|-9999-12121212-7777-55---141414-----141716-------------14~-----------------|
|--------------------------------XXX--------XXX---------------5---5555------|
|-7777-10101010-5555-33---121212-XXX-121514-XXX----(2x)-12~---55555555------|
|--------------------------------XXX--------XXX---------------55555555------|
                                                               ...
 CHORUS
|---------------------------------------------------------------------------|
|---------------------------------------------------------------------------|
|---------------------------------------------------------------------------|
|-7-7-7-7-3-3-3-3-10-10-10-10-5-5-5-5-------3~---2---2222-------------------|
|-7-7-7-7-3-3-3-3-10-10-10-10-5-5-5-5—(2x)—-3~---22222222-------------------|
|-7-7-7-7-3-3-3-3-10-10-10-10-5-5-5-5-------3~---22222222-------------------|
                                                  ...
 BREAKDOWN
|---------------------------------------------------------------------------|
|----------------------------3----------------------------3-----------------|
|----------------------------2----------------------------2-----------------|
|-0-0-XXXX-00-XX-0-0-XXXX-00-0-2-2-XXXX-22-XX-2-2-XXXX-22-0-----------------|
|-0-0-XXXX-00-XX-0-0-XXXX-00---2-2-XXXX-22-XX-2-2-XXXX-22-------------------|
|-0-0-XXXX-00-XX-0-0-XXXX-00---2-2-XXXX-22-XX-2-2-XXXX-22-------------------|

|---------------------------------------------------------------------------|
|-----------------3---3-----------------3---3-------------------------------|
|-----------------2---2-----------------2---2-------------------------------|
|-2-2-0-2-2-0-0-0-0-2-0-2-2-0-2-2-0-0-0-0-2-0-2~----------------------------|
|-2-2-0-2-2-0-0-0---2---2-2-0-2-2-0-0-0---2---2~----------------------------|
|-2-2-0-2-2-0-0-0---2---2-2-0-2-2-0-0-0---2---2~----------------------------|
      .     . . .           .     . . .  
  
  CHORUS twice
  INTRO
  BREAKDOWN

|---------------------------------------------------------------------------|
|---------------------------------------------------------------------------|
|---------------------------------------------------------------------------|
|---10--9--10--9--1212---------5--3-5--5--3-5---------7~--------------------|
|-77--77-77--77-77-----(2X)--33-33-3-33-33-3----(2X)--7~--------------------|
|-77--77-77--77-77-----------33-33-3-33-33-3----------7~--------------------|
  ..  .. ..  .. ..           .. .. . .. .. .
 End it with the CHORUS three times

Comment and rate!

************************************
| ~   vibrato
| .   Mute note
| X   Rake

************************************
Tap to rate this tab
 
# A B C D E F G H I J K L M N O P Q R S T U V W X Y Z