Song name
# A B C D E F G H I J K L M N O P Q R S T U V W X Y Z

Burden Of A Day - Anatomy Of A Scene tab

 alright so this is my first time tabbing and i took a crack at the intro to this song 
im pretty sure its right.im pretty sure they play in e minor but its works just as good 
drop d.

 e- ------------------------------------|
 b- ------------------------------------|
 g- ------------------------------------|
 d- -0-0-0-0---0-0---0-0-0-0------------|
 a- -0-0-0-0---0-0---0-0-0-0--8-h10p-p8-|
 d- -0-0-0-0---0-0---0-0-0-0------------|x2
   pm.......       pm.......
 e- -------------------------------------|
 b- -------------------------------------|
 g- -------------------------------------|
 d- -8-8-8-8---8-8---8-8-8-8-------------|
 a- -8-8-8-8---8-8---8-8-8-8--8-h10-s7p--|
   pm.......        pm......

 e- -------------------------------------|
 b- -------------------------------------|
 g- -------------------------------------|
 d- -8-8-8-8---8-8---8-8-8-8-------------|
 a- -8-8-8-8---8-8---8-8-8-8--10-h8-s7p--|
 d- -8-8-8-8---8-8---8-8-8-8-------------|
   pm.......        pm......

play this whole thing twice^^^

symbol key:
h-hammer on
p-pull off
pm-palm mute
s-slide
Tap to rate this tab
# A B C D E F G H I J K L M N O P Q R S T U V W X Y Z