Song name
# A B C D E F G H I J K L M N O P Q R S T U V W X Y Z

Buried In The Past - Broken Bones Make Us Stornger tab


d|----------------------------------------------|
A|----------------------------------------------|
F|----------------------------------------------|
C|0~~~-0~~--------------------------------------|
G|0~~~-0~~--------------------------------------|
D|0~~~-0~~-*2222222222222222-3333333-2222-1111--|

d|--------------------------------------|
A|--------------------------------------|
F|--------------------------------------|
C|--------------------------------------|
G|--------------------------------------|
D|-*2222222222222222-3333333-2222-1111--|

d|------------------------------------|
A|------------------------------------|
F|------------------------------------|
C|------------------------------------|
G|-2222222222222222-3333333-2222-1111-|
D|-2222222222222222-3333333-2222-1111-|

d|------------------------------------|
A|------------------------------------|
F|------------------------------------|
C|------------------------------------|
G|-2222222222222222-3333333-2222-1111-|
D|-2222222222222222-3333333-2222-1111-|

d|------------------------------------|
A|------------------------------------|
F|------------------------------------|
C|------------------------------------|
G|-2222222222222222-3333333-2222-1111-|
D|-2222222222222222-3333333-2222-1111-|

d|----------------------------------|
A|----------------------------------|
F|----------------------------------|
C|----------------------------------|
G|-22222-22222-3333-2222-1111-------|
D|-22222-22222-3333-2222-1111-------|

d|-----------------------------------|
A|-----------------------------------|
F|-----------------------------------|
C|----------------------------0~~~~~-|
G|-22222-22222-3333-2222-1111-0~~~~~-|
D|-22222-22222-3333-2222-1111-0~~~~~-|


d|----------------------------------|
A|----------------------------------|
F|----------------------------------|
C|----------------------------------|
G|-33333333-55555555-7-999----------|
D|-22222222-44444444-6-888----------|

d|-----------------------------------|
A|-----------------------------------|
F|-----------------------------------|
C|-----------------------------------|
G|-33333333-55555555-7-999-1~~~~~----|
D|-22222222-44444444-6-888-1~~~~~----|

d|-------------------------------------|
A|-------------------------------------|
F|-------------------------------------|
C|-------------------------------------|
G|-------------------------------------|
D|-*8888-8888-888-6666-4444-333*-------|

d|-------------------------------------|
A|-------------------------------------|
F|-------------------------------------|
C|-------------------------------------|
G|-------------------------------------|
D|-*8888-8888-888-6666-4444-333*-------|

d|----------------------------------|
A|----------------------------------|
F|----------------------------------|
C|----------------------------------|
G|-8888-8888-888-6666-4444-333------|
D|-8888-8888-888-6666-4444-333------|

d|----------------------------------|
A|----------------------------------|
F|----------------------------------|
C|----------------------------------|
G|-8888-8888-888-6666-4444-333------|
D|-8888-8888-888-6666-4444-333------|

d|----------------------------------|
A|----------------------------------|
F|----------------------------------|
C|----------------------------------|
G|-8888-8888-888-6666-4444-333------|
D|-8888-8888-888-6666-4444-333------|

d|----------------------------------|
A|----------------------------------|
F|----------------------------------|
C|----------------------------------|
G|-8888-8888-888-6666-4444-333------|
D|-8888-8888-888-6666-4444-333------|

d|-----------------------------------------------------------------|
A|-----------------------------------------------------------------|
F|-----------------------------------------------------------------|
C|-----------------------------------------------------------------|
G|3333-5555-4444-3333-5555-4444-3333-5555-4444-3333-5555-4444-5~~~-|
D|3333-5555-4444-3333-5555-4444-3333-5555-4444-3333-5555-4444-5~~~-|

d|-----------------------------------------------------------|
A|-----------------------------------------------------------|
F|-----------------------------------------------------------|
C|-----------------------------------------------------------|
G|*1-1111-1111-1-1111-1-1111-1111-1-1111-1-1111-1111-1-1111--|
D|*1-1111-1111-1-1111-1-1111-1111-1-1111-1-1111-1111-1-1111--|

d|----------------------------------------------------------|
A|----------------------------------------------------------|
F|----------------------------------------------------------|
C|----------------------------------------------------------|
G|*1-1111-1111-1-1111-1-1111*-1111~~~~----------------------|
D|*1-1111-1111-1-1111-1-1111*-1111~~~~----------------------|
Tap to rate this tab
# A B C D E F G H I J K L M N O P Q R S T U V W X Y Z