Song name
# A B C D E F G H I J K L M N O P Q R S T U V W X Y Z

Buried Inside - Time As Ideology tab

Band:  BURIED INSIDE
Album: Chronoclast
Song:  Time as Ideology

Transcribed by: Justin Brabon
Email: glcometdude@hotmail.com

Tuning: (drop C)
strings 1-5 - 1 step down
string    6 - 2 steps down

Keys:
  x  - mute
  "  - tremelo pick
 / \ - slide


(Gtr 1)
|-----------------------------------------------------------------------|
|-----------------------------------------------------------------------|
|-----7"------7"-8"-----7"------7"-8"-----7"------7"-8"-5"------8"------|
|-----x-------x--x------x-------x--x------x-------x--x--3"------6"------|
|-0"--5"--0"--5"-6"-0"--5"--0"--5"-6"-0"--5"--0"--5"-6"-3"------6"------|
|-0"------0"--------0"------0"--------0"------0"--------3"------6"------|

(Gtr 2)
|-------------------------------------------------------------------------|
|-------------------------------------------------------------------------|
|-----7"------7"-8"-----7"------7"-8"-----7"------7"-8"-----7"------7"-8"-|
|-----x-------x--x------x-------x--x------x-------x--x------x-------x--x--|
|-0"--5"--0"--5"-6"-0"--5"--0"--5"-6"-0"--5"--0"--5"-6"-0"--5"--0"--5"-6"-|
|-0"------0"--------0"------0"--------0"------0"--------0"------0"--------|

(Gtr 1)
 ------------------------------------------------------------------------|
 ------------------------------------------------------------------------|
 -----7"------7"-8"-----7"------7"-8"-----7"------7"-8"-8"------15"------|
 -----x-------x--x------x-------x--x------x-------x--x--x--------x-------|
 -0"--5"--0"--5"-6"-0"--5"--0"--5"-6"-0"--5"--0"--5"-6"-6"------13"------|
 -0"------0"--------0"------0"--------0"------0"-------------------------|

(Gtr 2)
 -------------------------------------------------------------------------|
 -------------------------------------------------------11"------13"------|
 -----7"------7"-8"-----7"------7"-8"-----7"------7"-8"--x--------x-------|
 -----x-------x--x------x-------x--x------x-------x--x---8"------10"------|
 -0"--5"--0"--5"-6"-0"--5"--0"--5"-6"-0"--5"--0"--5"-6"-------------------|
 -0"------0"--------0"------0"--------0"------0"--------------------------|

(Gtr 1)
 -----------------------------------------------------------------------|
 -----------------------------------------------------------------------|
 -----7"------7"-8"-----7"------7"-8"-----7"------7"-8"-5"------8"------|
 -----x-------x--x------x-------x--x------x-------x--x--3"------6"------|
 -0"--5"--0"--5"-6"-0"--5"--0"--5"-6"-0"--5"--0"--5"-6"-3"------6"------|
 -0"------0"--------0"------0"--------0"------0"--------3"------6"------|

(Gtr 2)
 -------------------------------------------------------------------------|
 -------------------------------------------------------------------------|
 -----7"------7"-8"-----7"------7"-8"-----7"------7"-8"-----7"------7"-8"-|
 -----x-------x--x------x-------x--x------x-------x--x------x-------x--x--|
 -0"--5"--0"--5"-6"-0"--5"--0"--5"-6"-0"--5"--0"--5"-6"-0"--5"--0"--5"-6"-|
 -0"------0"--------0"------0"--------0"------0"--------0"------0"--------|

(Gtr 1)
 -------------------------------------------------------------------------|
 -------------------------------------------------------------------------|
 -----7"------7"-8"-----7"------7"-8"-----7"------7"-8"-8"------10"--12"--|
 -----x-------x--x------x-------x--x------x-------x--x--x--------x----x---|
 -0"--5"--0"--5"-6"-0"--5"--0"--5"-6"-0"--5"--0"--5"-6"-6"-------8"--10"--|
 -0"------0"--------0"------0"--------0"------0"--------------------------|

(Gtr 2)
 -------------------------------------------------------------------------|
 -------------------------------------------------------11"------13"------|
 -----7"------7"-8"-----7"------7"-8"-----7"------7"-8"--x--------x-------|
 -----x-------x--x------x-------x--x------x-------x--x---8"------10"------|
 -0"--5"--0"--5"-6"-0"--5"--0"--5"-6"-0"--5"--0"--5"-6"-------------------|
 -0"------0"--------0"------0"--------0"------0"--------------------------| 2x


(Gtr 1 & 2)
|------------------------|
|------------------------|
|----7-7---7-----7-7---7-|
|----x-x---x-----x-x---x-|
|-0--5-5-0-5--0--5-5-0-5-|
|-0------0----0------0---|


(Gtr 1)
|--------------------------------------------------------------------|
|--------------------------------------------------------------------|
|-15-15-15-15-15-15-15\12-12/14-14--15-15-15-15-15-15-15\12-12/14-14-|
|--x--x--x--x--x--x--x-----x-----x---x--x--x--x--x--x--x-----x-----x-|
|-13-13-13-13-13-13-13\10-10/12-12--13-13-13-13-13-13-13\10-10/12-12-|
|--------------------------------------------------------------------|

(Gtr 2)
|---------------------------------------------------------------------|
|---------------------------------------------------------------------|
|-7-------------------------------------------------------------------|
|-5-------------------------------------------------------------------|
|-5-------------------------------------------------------------------|
|-5...----------------------------------------------------------------|

(Gtr 1)
 --------------------------------------------------------------------|
 --------------------------------------------------------------------|
 -15-15-15-15-15-15-15\12-12/14-14--15-15-15-15-15-15-15\12-12/14-14-|
 --x--x--x--x--x--x--x-----x-----x---x--x--x--x--x--x--x-----x-----x-|
 -13-13-13-13-13-13-13\10-10/12-12--13-13-13-13-13-13-13\10-10/12-12-|
 --------------------------------------------------------------------|

(Gtr 2)
 ---------------------------------------------------------------------|
 -4-------------------------------------------------------------------|
 -3-------------------------------------------------------------------|
 -1-------------------------------------------------------------------|
 -1-------------------------------------------------------------------|
 -1...----------------------------------------------------------------|

(Gtr 1)
 -----------------------------------------------------------------------------|
 -----------------------------------------------------------------------------|
 -8-8-8-8-8-8-8\5-5/7-7--8-8-8-8-8-8-8\5-5\3-3--7"------7/10"--10/12-12/14-14-|
 -x-x-x-x-x-x-x---x---x--x-x-x-x-x-x-x---x---x--x----------x----x-----x-----x-|
 -6-6-6-6-6-6-6\3-3/5-5--6-6-6-6-6-6-6\3-3\1-1--5"------5/-8"---8/10-10/12-12-|
 -----------------------------------------------------------------------------|

(Gtr 2)
 -----------------------------------------------------------------------------|
 -----------------------------------------------------------------------------|
 -5-5-5-5-5-5-5---4---5\4-5-5-5-5-5-5-5---4---8\6-7"------------------5/7\5/7-|
 -x-x-x-x-x-x-x---x---x---x-x-x-x-x-x-x---x---x---x-------------------x-------|
 -3-3-3-3-3-3-3-0-2-0-3\2-3-3-3-3-3-3-3-0-2-0-6\4-5"------------------3/5\3/5-|
 -----------------------------------------------------------------------------|


(Gtr 1)
|-------------------------------------------------------------------------|
|-------------------------------------------------------------------------|
|-15-15-15-15-15-15-15/17-17-17-17-17-12-12-12-12-12-12-12/14-14-14-14-14-|
|--x--x--x--x--x--x--x-----x--x--x--x--x--x--x--x--x--x--x-----x--x--x--x-|
|-13-13-13-13-13-13-13/15-15-15-15-15-10-10-10-10-10-10-10/12-12-12-12-12-|
|-------------------------------------------------------------------------|

(Gtr 2)
|-------------------------------------------------------------------------|
|-------------------------------------------------------------------------|
|-7-----------------------------------------------------------------------|
|-5-----------------------------------------------------------------------|
|-5-----------------------------------------------------------------------|
|-5...--------------------------------------------------------------------|

(Gtr 1)
 -------------------------------------------------------------------------|
 -------------------------------------------------------------------------|
 -15-15-15-15-15-15-15/17-17-17-17-17-12-12-12-12-12-12-12/14-14-14-14-14-|
 --x--x--x--x--x--x--x-----x--x--x--x--x--x--x--x--x--x--x-----x--x--x--x-|
 -13-13-13-13-13-13-13/15-15-15-15-15-10-10-10-10-10-10-10/12-12-12-12-12-|
 -------------------------------------------------------------------------|

(Gtr 2)
 -------------------------------------------------------------------------|
 -4-----------------------------------------------------------------------|
 -3-----------------------------------------------------------------------|
 -1-----------------------------------------------------------------------|
 -1-----------------------------------------------------------------------|
 -1...--------------------------------------------------------------------|

(Gtr 1)
 -------------------------------------------------------------------------|
 -------------------------------------------------------------------------|
 -12/15-15-15-15-15-15-15-15-15-15-15-12/14-14-14-14-14-14-14-14-14-14-14-|
 --x-----x--x--x--x--x--x--x--x--x--x--x-----x--x--x--x--x--x--x--x--x--x-|
 -10/13-13-13-13-13-13-13-13-13-13-13-10/12-12-12-12-12-12-12-12-12-12-12-|
 -------------------------------------------------------------------------|

(Gtr 2)
 -------------------------------------------------------------------------|
 -------------------------------------------------------------------------|
 --5--5--5--5--5--5--5-/-8-8--8--8--8--5--5--5--5--5--5--5-/-8-8--8--8\5--|
 --x--x--x--x--x--x--x-----x--x--x--x--x--x--x--x--x--x--x-----x--x--x----|
 --3--3--3--3--3--3--3-/-6-6--6--6--6--3--3--3--3--3--3--3-/-6-6--6--6\3--|
 -------------------------------------------------------------------------|
(Gtr 1)
 -------------------------------------------------------------------------|
 -------------------------------------------------------------------------|
 -11/12-12-12-12-12-12-12-12-12-12-12-11-11-11-11-11-11-11-11-11-11-11-11-|
 --x-----x--x--x--x--x--x--x--x--x--x--x--x--x--x--x--x--x--x--x--x--x--x-|
 --9/10-10-10-10-10-10-10-10-10-10-10--9--9--9--9--9--9--9--9--9--9--9--9-|
 -------------------------------------------------------------------------|

(Gtr 2)
 -------------------------------------------------------------------------|
 -------------------------------------------------------------------------|
 -7-----------------------------------------------------------------------|
 -x-----------------------------------------------------------------------|
 -5...--------------------------------------------------------------------|
 -------------------------------------------------------------------------|


(Gtr 1 & 2)
|-------------------------------------------------------------------------|
|-------------------------------------------------------------------------|
|-17-17-17-17-17-17-17\15-15-15-15-15-15\14-14-14-14-14-14\12-12-12-12-12-|
|--x--x--x--x--x--x--x-----x--x--x--x--x-----x--x--x--x--x-----x--x--x--x-|
|-15-15-15-15-15-15-15\13-13-13-13-13-13\12-12-12-12-12-12\10-10-10-10-10-|
|-------------------------------------------------------------------------| 2x

(Gtr 1)
|-------------------------------------------------------------------------|
|-16-16-16-16-16-16-16\15-15-15-15-15-15\13-13-13-13-13-13/16-16-16-16-16-|
|--x--x--x--x--x--x--x-----x--x--x--x--x-----x--x--x--x--x-----x--x--x--x-|
|-13-13-13-13-13-13-13\12-12-12-12-12-12\10-10-10-10-10-10/13-13-13-13-13-|
|-------------------------------------------------------------------------|
|-------------------------------------------------------------------------|

(Gtr 2)
|-------------------------------------------------------------------------|
|-------------------------------------------------------------------------|
|-12/14-14-14-14-14-14-14-14-14-14\12-12/15-15-15-15-15-15-15-15-15-15\12-|
|--x-----x--x--x--x--x--x--x--x--x-----x-----x--x--x--x--x--x--x--x--x----|
|-10/12-12-12-12-12-12-12-12-12-12\10-10/13-13-13-13-13-13-13-13-13-13\10-|
|-------------------------------------------------------------------------|

(Gtr 1)
 -------------------------------------------------------------------------|
 -15-15-15-15-15-15-15-15-15-15-15-15-------------------------------------|
 --x--x--x--x--x--x--x--x--x--x--x--x-15-15-15-15-15-15-15-15-15-15-15-15-|
 -12-12-12-12-12-12-12-12-12-12-12-12--x--x--x--x--x--x--x--x--x--x--x--x-|
 -------------------------------------13-13-13-13-13-13-13-13-13-13-13-13-|
 -------------------------------------------------------------------------|

(Gtr 2)
 -------------------------------------------------------------------------|
 -------------------------------------------------------------------------|
 -12/14-14-14-14-14-14-14-14-14-14-14-15"---------------17"---------------|
 --x-----x--x--x--x--x--x--x--x--x--x--x-----------------x----------------|
 -10/12-12-12-12-12-12-12-12-12-12-12-13"---------------15"---------------|
 -------------------------------------------------------------------------|


(Gtr 1 & 2)
|-------------------------------------------------------|
|-------------------------------------------------------|
|-14-----------14-----------14-----------14---15---15---|
|--x------------x------------x------------x----x----x---|
|-12-----------12-----------12-----------12---13---13---|
|----0-0-0-0-0----0-0-0-0-0----0-0-0-0-0----0----0----0-| 2x

|-------------------------------------------------------|
|-------------------------------------------------------|
|-12-----------12-----------12-----------12---15---14---|
|--x------------x------------x------------x----x----x---|
|-10-----------10-----------10-----------10---13---12---|
|----0-0-0-0-0----0-0-0-0-0----0-0-0-0-0----0----0----0-|

 -----------------------------------------------------|
 -----------------------------------------------------|
 -10-----------10-----------10-----------10---9---7---|
 --x------------x------------x------------x---x---x---|
 --8------------8------------8------------8---7---5---|
 ----0-0-0-0-0----0-0-0-0-0----0-0-0-0-0----0----0--0-|

(Gtr 2 plays above riff again)

(Gtr 1) (true timing not written out)
|---------------------------------------------------------------|
|---------------------------------------------------------------|
|-7"----------9"----------10"----------12"--------14"----15"----|
|-x-----------x------------x------------x----------x------x-----|
|-5"----------7"-----------8"----------10"--------12"----13"----|
|---------------------------------------------------------------|


(Gtr 2)
|-----------------------------------------------------------------------------|
|-----------------------------------------------------------------------------|
|-3-3-3-3-3-3-3-3-3-3-3-3-3-3-3-3-3\2-2-2-2-2-7-7-7-7-7-7-7-7-7-7-7-7-6-6-6-6-|
|-x-x-x-x-x-x-x-x-x-x-x-x-x-x-x-x-x---x-x-x-x-x-x-x-x-x-x-x-x-x-x-x-x-x-x-x-x-|
|-1-1-1-1-1-1-1-1-1-1-1-1-1-1-1-1-1\0-0-0-0-0-5-5-5-5-5-5-5-5-5-5-5-5-4-4-4-4-|
|-----------------------------------------------------------------------------|

 -------------------------------------------------------------|
 -------------------------------------------------------------|
 -6-6-6-6-6-6-6-6-3-3-3-3-3-3-3-3-3-3-3-3-3-3-3-3-3\2-2-2-2-2-|
 -x-x-x-x-x-x-x-x-x-x-x-x-x-x-x-x-x-x-x-x-x-x-x-x-x---x-x-x-x-|
 -4-4-4-4-4-4-4-4-1-1-1-1-1-1-1-1-1-1-1-1-1-1-1-1-1\0-0-0-0-0-|
 -------------------------------------------------------------|

 -------------------------------------------------------|
 -------------------------------------------------------|
 -7-7-7-7-7-7-10-10-10-10-10-10-6-6-6-6-6-6-6-6-6-6-6-6-|
 -x-x-x-x-x-x--x--x--x--x--x--x-x-x-x-x-x-x-x-x-x-x-x-x-|
 -5-5-5-5-5-5--8--8--8--8--8--8-4-4-4-4-4-4-4-4-4-4-4-4-|
 -------------------------------------------------------| 3x

(Gtr 1)
|-------------------------------------------------------------------------|
|-------------------------------------------------------------------------|
|-17-17-17-17-17-17-17-17-17-17-17-17-17\14-14-14-14-14-14-14-14-14-14-14-|
|--x--x--x--x--x--x--x--x--x--x--x--x--x-----x--x--x--x--x--x--x--x--x--x-|
|-15-15-15-15-15-15-15-15-15-15-15-15-15\12-12-12-12-12-12-12-12-12-12-12-|
|-------------------------------------------------------------------------|

 -------------------------------------------------------------------------|
 -------------------------------------------------------------------------|
 -19-19-19-19-19-19-19-19-19-19-19-19-19\14-14-14-14-14-14-14-14-14-14-14-|
 --x--x--x--x--x--x--x--x--x--x--x--x--x-----x--x--x--x--x--x--x--x--x--x-|
 -17-17-17-17-17-17-17-17-17-17-17-17-17\12-12-12-12-12-12-12-12-12-12-12-|
 -------------------------------------------------------------------------|

 -------------------------------------------------------------------------|
 -------------------------------------------------------------------------|
 -17-17-17-17-17-17-17-17-17-17-17-17-17\14-14-14-14-14-14-14-14-14-14-14-|
 --x--x--x--x--x--x--x--x--x--x--x--x--x-----x--x--x--x--x--x--x--x--x--x-|
 -15-15-15-15-15-15-15-15-15-15-15-15-15\12-12-12-12-12-12-12-12-12-12-12-|
 -------------------------------------------------------------------------|

 -------------------------------------------------------------------------|
 -15"---------------18"---------------17"---------------------------------|
 --x-----------------x-----------------x----------------14"---------------|
 -12"---------------15"---------------14"----------------x----------------|
 -------------------------------------------------------12"---------------|
 -------------------------------------------------------------------------|

|-------------------------------------------------------------------------|
|-------------------------------------------------------------------------|
|-17-17-17-17-17-17-17-17-17-17-17-17-17\14-14-14-14-14-14-14-14-14-14-14-|
|--x--x--x--x--x--x--x--x--x--x--x--x--x-----x--x--x--x--x--x--x--x--x--x-|
|-15-15-15-15-15-15-15-15-15-15-15-15-15\12-12-12-12-12-12-12-12-12-12-12-|
|-------------------------------------------------------------------------|

 -------------------------------------------------------------------------|
 -------------------------------------------------------------------------|
 -19-19-19-19-19-19-19-19-19-19-19-19-19\14-14-14-14-14-14-14-14-14-14-14-|
 --x--x--x--x--x--x--x--x--x--x--x--x--x-----x--x--x--x--x--x--x--x--x--x-|
 -17-17-17-17-17-17-17-17-17-17-17-17-17\12-12-12-12-12-12-12-12-12-12-12-|
 -------------------------------------------------------------------------|

 -------------------------------------------------------------------------|
 -------------------------------------------------------------------------|
 -17-17-17-17-17-17-17-17-17-17-17-17-17\14-14-14-14-14-14-14-14-14-14-14-|
 --x--x--x--x--x--x--x--x--x--x--x--x--x-----x--x--x--x--x--x--x--x--x--x-|
 -15-15-15-15-15-15-15-15-15-15-15-15-15\12-12-12-12-12-12-12-12-12-12-12-|
 -------------------------------------------------------------------------|

 -------------------------------------------------------------------------|
 -15"---------------18"---------------17"---------------20"---------------|
 --x-----------------x-----------------x-----------------x----------------|
 -12"---------------15"---------------14"---------------17"---------------|
 -------------------------------------------------------------------------|
 -------------------------------------------------------------------------|

(true timing not written out)
 ------------------------------------------------------------------------|
 -15"----------20"--22"----------23"--18"------------17"--18"--17"--14"--|
 --x------------x----x------------x----x--------------x----x----x----x---|
 -12"----------17"--19"----------20"--15"------------14"--15"--14"--11"--|
 ------------------------------------------------------------------------|
 ------------------------------------------------------------------------|


(Gtr 1)
|-------------------------------------------------------------------|
|-15"-----------15"--------15"-----17"-----------17"--------17"-----|
|--x-----14"-----x-----14"--x--14"--x-----14"-----x-----14"--x--14"-|
|-12"-----x-----12"-----x--12"--x--14"-----x-----14"-----x--14"--x--|
|--------12"-----------12"-----12"--------12"-----------12"-----12"-|
|-------------------------------------------------------------------|

(Gtr 2)
|-------------------------------------------------------------------|
|-------------------------------------------------------------------|
|--7"----10"-----9"----12"----------6"---15"----14"----12"----------|
|--x------x------x------x-----------x-----x------x------x-----------|
|--5"-----8"-----7"----10"----------4"---13"----12"----10"----------|
|-------------------------------------------------------------------|

(Gtr 1)
 -------------------------------------------------------------------|
 -18"-----------18"--------18"-----17"----13"----17"----13"-17"-13"-|
 --x-----15"-----x-----15"--x--15"--x------x------x------x---x---x--|
 -15"-----x-----15"-----x--15"--x--14"----10"----14"----10"-14"-10"-|
 --------13"-----------13"-----13"----------------------------------|
--------------------------------------------------------------------|

(Gtr 2)
 -------------------------------------------------------------------|
 -------------------------------------------------------------------|
 -15"----14"----15"----17"---------14"----12"----10"-----9"---------|
 --x------x------x------x-----------x------x------x------x----------|
 -13"----12"----13"----15"---------12"----10"-----8"-----7"---------|
 -------------------------------------------------------------------|

(Gtr 1)
 -------------------------------------------------------------------|
 -15"-----------15"--------15"-----17"-----------17"--------17"-----|
 --x-----14"-----x-----14"--x--14"--x-----14"-----x-----14"--x--14"-|
 -12"-----x-----12"-----x--12"--x--14"-----x-----14"-----x--14"--x--|
 --------12"-----------12"-----12"--------12"-----------12"-----12"-|
 -------------------------------------------------------------------|

(Gtr 2)
 -------------------------------------------------------------------|
 -------------------------------------------------------------------|
 --7"----10"-----9"----12"----------6"---15"----14"----12"----------|
 --x------x------x------x-----------x-----x------x------x-----------|
 --5"-----8"-----7"----10"----------4"---13"----12"----10"----------|
 -------------------------------------------------------------------|

(Gtr 1)
 --------------------------------------------------------------|
 -18"-----------18"--------18"-----17"-----------18"-----------|
 --x-----15"-----x-----15"--x--15"--x-------------x-----17"----|
 -15"-----x-----15"-----x--15"--x--14"-----------15"-----x-----|
 --------13"-----------13"-----13"----------------------15"----|
---------------------------------------------------------------|

(Gtr 2)
 --------------------------------------------------------------|
 --------------------------------------------------------------|
 --7"----10"-----9"----12"----------6"----15"----14"----12"----|
 --x------x------x------x-----------x-----x------x------x------|
 --5"-----8"-----7"----10"----------4"----13"----12"----10"----|
 --------------------------------------------------------------|


(Gtr 1 & 2)
|---------------------|
|---------------------|
|---------------------|
|---------------------|
|---------------------|
|-0----0----0----0----|
Tap to rate this tab
# A B C D E F G H I J K L M N O P Q R S T U V W X Y Z