Song name
# A B C D E F G H I J K L M N O P Q R S T U V W X Y Z

Buried Inside - Time As Methodology tab

Band:  BURIED INSIDE
Album: Chronoclast
Song:  Time as Methodology

Transcribed by: Justin Brabon
Email: glcometdude@hotmail.com

Tuning: (drop C)
strings 1-5 - 1 step down
string    6 - 2 steps down

Keys:
 / \ - slide
  h  - hammer on


|-----------------------------------------------|
|-----------------------------------------------|
|-----------------------------------------------|
|-----8--------8-------------7--------7--3h5-3--|
|---5--------5----8\5-5----5--------5-----------|
|-0--------0-------------0--------0-------------| 2x

|-----------------------------------------------|
|-----------------------------------------------|
|-----------------------------------------------|
|-----8--------8-------------7--------3--3h5-3--|
|---5--------5----8\5-5----5--------5-----------|
|-0--------0-------------0--------0-------------|

|-----------------------------------------------------|
|-----------------------------------------------------|
|-----------------------------------------------------|
|-----------------------------------------------------|
|-----------------------------------------------------|
|-0------------0------------0------------0------------| 2x

(sweep pick)
|-10------------10------------5------------5------------|
|-10------------10------------2------------2------------|
|-10------------10------------3------------3------------|
|-12------------12--------------------------------------|
|-------------------------------------------------------|
|-------------------------------------------------------| 3x

|--------------------------------------------------------------------|
|--------------------------------------------------------------------|
|--------------------------------------------------------------------|
|--------------------------------------------------------------------|
|--------------------------------------------------------------------|
|-0------------0------------0------------0---------------------------|
Tap to rate this tab
 
# A B C D E F G H I J K L M N O P Q R S T U V W X Y Z