Song name
# A B C D E F G H I J K L M N O P Q R S T U V W X Y Z

Buried Inside - Time As Automation tab

Band:  BURIED INSIDE
Album: Chronoclast
Song:  Time as Automation

Transcribed by: Chris Humeniuk
Email: father_death_666@hotmail.com

Tuning: (drop C)
strings 1-5 - 1 step down
string    6 - 2 steps down

Keys:
 / \ - slide
  h  - hammer on


|-----------------------------------------------|
|-----------------------------------------------|
|-----------------------------------------------|
|-----8--------8-------------7--------7--3h5-3--|
|---5--------5----8\5-5----5--------5-----------|
|-0--------0-------------0--------0-------------|

|-----------------------------------------------|
|-----------------------------------------------|
|-----------------------------------------------|
|-----8--------8-------------7--------3--3h5-3--|
|---5--------5----8\5-5----5--------5-----------|
|-0--------0-------------0--------0-------------|

|-------------------------------------|
|-------------------------------------|
|-----------------------0--------0----|
|-----7--------7--------7--------7----|
|---5--------5--------5--------5------|
|-5--------5--------3--------3--------|

|-----------------------------------------------|
|-----------------------------------------------|
|-----------------------------------------------|
|-----8--------8-------------7--------3--3h5-3--|
|---5--------5----8\5-5----5--------5-----------|
|-0--------0-------------0--------0-------------|

|---------------------------|
|---------------------------|
|---------------------------|
|---------------------------|
|---------------------------|
|-0------------0------------|
Tap to rate this tab
 
# A B C D E F G H I J K L M N O P Q R S T U V W X Y Z