Song name
# A B C D E F G H I J K L M N O P Q R S T U V W X Y Z

Burlap To Cashmere - Anybody Out There tab

Artist: Burlap To Cashmere (http://www.burlaptocashmere.com/)
Song: Anybody Out There (solo)
Transcribed: Darren Armentrout (fishman@fishmanmusic.com)

For the intro, chords, and lyrics be sure to check out the 
version by Myron Marston (marston@foxcomm.net).  His solo
was close but I think this solo is a little more accurate.

  
|--------------------------------------------------------------------------|
|--------------------------------------------------------------------------|
|--------------------------------------------------------------------------|
|--------0-2-4--4-4-4h5-4-2-0-2-4-5-4h5p4-4--------------------------------|
|----2-4------------------------------------4h5p4-4------------------------|
|--2-----------------------------------------------------------------------|


|--------------------------------------------------------------------------|
|--------------------------------------------------------------------------|
|--------------------------------------------------------------------------|
|--------0-2-4--4-4-4h5-4--2-0---0-2---------------------------------------|
|----2-4-----------------------4-----2-------------------------------------|
|--2-----------------------------------------------------------------------|


|--------------------------------------------------------------------------|
|--------------------------------------------------------------------------|
|------------9-11-11-11-12-11---9----9-11-12-11----------------------------|
|----9-11-12----------------------12---------------------------------------|
|--9-----------------------------------------------------------------------|
|--------------------------------------------------------------------------|

   *rake and release
|--7-9-10-9-7----7-------------------------------------------------------7-|
|--7----------10---8-10-7-8---7-----------------------------7-8---7-8-10---|
|--7------------------------9---7-9-6-7---6-----6-7---6-7-9-----9----------|
|---------------------------------------9---8-9-----9----------------------|
|--------------------------------------------------------------------------|
|--------------------------------------------------------------------------|


|---9---10---12---9---10---12---9---10---9-10---9-10-7-9----7--------------|
|-----0----0----0---0----0----0---0----0-----------------10---7-10---7-----|
|------------------------------------------------------------------9---7-9-|
|--------------------------------------------------------------------------|
|--------------------------------------------------------------------------|
|--------------------------------------------------------------------------|

                                                     1/2
|----------------------------------------------7-9-9^-9-7---7-9--h10p9p7-7-|
|-------7-8--- -7-8-8h10-------7h8h10---7h8h10-----------10----------------|
|-6-7-9-----7-9----------6h7h9---------------------------------------------|
|--------------------------------------------------------------------------|
|--------------------------------------------------------------------------|
|--------------------------------------------------------------------------|

Tap to rate this tab
# A B C D E F G H I J K L M N O P Q R S T U V W X Y Z