Song name
# A B C D E F G H I J K L M N O P Q R S T U V W X Y Z

Burlap To Cashmere - Treasures In Heaven tab

Burlap to Cashmere
Treasures in Heaven
1998 A&M Records Inc.
Tabbed by Mathijs van Gorcum

1st verse

  C9	       G/B	    Bm	 	 Cmaj7
e------------|------------|------------|--------3x--|
B-3--x-3--x--|-3--x-3--x--|-3--x-3--x--|-5--x-5--x--|
G-0--x-0--x--|-0--x-0--x--|-4--x-4--x--|-4--x-4--x--|
D------------|------------|------------|------------|
A-3--x-3--x--|-2--x-2--x--|-2--x-2--x--|-3--x-3--x--|
E------------|------------|------------|------------|

  C9	       G/B	    Bm	 	 Cmaj7
e------------|------------|------------|------5p3x--|
B-3--x-3--x--|-3--x-3--x--|-3--x-3--x--|-5--x-5--x--|
G-0--x-0--x--|-0--x-0--x--|-4--x-4--x--|-4--x-4--x--|
D------------|------------|------------|------------|
A-3--x-3--x--|-2--x-2--x--|-2--x-2--x--|-3--x-3--x--|
E------------|------------|------------|------------|

  C9	       G/B	    Bm	 	 Cmaj7
e------------|------------|------------|------------|
B-3--x-3--x--|-3--x-3--x--|-3--x-3--x--|-55-x-5--x--|
G-0--x-0--x--|-0--x-0--x--|-4--x-4--x--|-44-x-4--x--|
D------------|------------|------------|------------|
A-3--x-3--x--|-2--x-2--x--|-2--x-2--x--|-33-x-3--x--|
E------------|------------|------------|------------|

Pre-chorus

    C                  Em
I've Seen you crying

    C                    Em
I've seen you on your knees

     C                 Em	(D/F# G)
The wise man died so you can.

Chorus:

G        C9
Store up treasures in heaven (3x)

C                           	            D
Don't you wait for the rain to come falling down


2nd verse

  C9	       G/B	    Bm	 	 Cmaj7
e------------|------------|------------|------5-5/7-|
B-3--x-3--x--|-3--x-3--x--|-3--x-3--x--|-5--x-5-----|
G-0--x-0--x--|-0--x-0--x--|-4--x-4--x--|-4--x-4-----|
D------------|------------|------------|------------|
A-3--x-3--x--|-2--x-2--x--|-2--x-2--x--|-3--x-3-----|
E------------|------------|------------|------------|

  C9	       G/B	    Bm	 	 Cmaj7
e------------|------------|------------|------5p3h5/7|
B-3--x-3--x--|-3--x-3--x--|-3--x-3--x--|-5--x-5------|
G-0--x-0--x--|-0--x-0--x--|-4--x-4--x--|-4--x-4------|
D------------|------------|------------|-------------|
A-3--x-3--x--|-2--x-2--x--|-2--x-2--x--|-3--x-3------|
E------------|------------|------------|-------------|

  C9	       G/B	    Bm	 	 Cmaj7
e------------|------------|------------|------------|
B-3--x-3--x--|-3--x-3--x--|-3--x-3--x--|-55-x-5--x--|
G-0--x-0--x--|-0--x-0--x--|-4--x-4--x--|-44-x-4--x--|
D------------|------------|------------|------------|
A-3--x-3--x--|-2--x-2--x--|-2--x-2--x--|-33-x-3--x--|
E------------|------------|------------|------------|

Pre-chorus

Chorus

During the solo the acoustic guitar I have been tabbing uptill now plays the riff used 
the

verse (maybe with some variation in Cmaj7-chord)


e-----------5-5/7\5--------------------------|
B---5-7-8-5---------8-7-5--------------------|
G-7-----------------------7-7--5p4h5/7\5p4h5-|
D--------------------------------------------|
A--------------------------------------------|
E--------------------------------------------|

e-----8-7-----10-7-----12---------------------|
B---------8--------8------12------------------|
G-5-7-------7--------7-------9-7-9--7h9/10/11-|
D---------------------------------------------|
A---------------------------------------------|
E---------------------------------------------|

e-10-10-10-10-8-8-8-7-7-7-5-5-5-3-3-3----------------------------------------10----|
B-------------------------------------7-7-7-5-5-5-------------------5-7-8-10----10-|
G-------------------------------------------------5p4h5/7\5p4h5--/7----------------|
D----------------------------------------------------------------------------------|
A----------------------------------------------------------------------------------|
E----------------------------------------------------------------------------------|

Bridge:

The piano is playing some riff, on guitar it'd be something like this:

e-------------------------------|
B--3---3---3---5----------------|
G----0---0---0---0--------------|
D-------------------------------|
A-------------------------------|
E-------------------------------|

Chords used:

C9 G(/B) Bm Cmaj7

Pre-Chorus

Followed by the Chorus:

Bm       C
Store up treasures in heaven (2x, played by bass and piano)

G        C9
Store up treasures in heaven (3x)

C                           	            D
Don't you wait for the rain to come falling down

Outtro:

C Em Bm Cmaj7 (2x)

Chords used:

C9:	X32033
G/B:	X20033
Bm:	X24432
Cmaj7:	X3X453 or X32000
C:	X32010
D:	XX0232
Tap to rate this tab
 
# A B C D E F G H I J K L M N O P Q R S T U V W X Y Z