Guitaretab - guitar tabs
Song name
# A B C D E F G H I J K L M N O P Q R S T U V W X Y Z

Burn Halo - Save Me tab

-------------------------------------------------------------------------------
			     Save me  burn halo
-------------------------------------------------------------------------------
Tabbed by: alexyeung
Email:alexyeung330@hotmail.com

Tuning: dropped D

If you heard the songs you should know moreless the slides and all

www.myspace.com/burnhalo

e|--------------------------------------|
B|--------------------------------------|
G|--------------------------------------|
D|-5-7-10-7-7--7-7----------------------| X2
A|-3-5-8--5-5--5-5----------------------|
D|--------------------------------------|

e|--------------------------------------|
B|--------------------------------------|
G|--------------------------------------|
D|-5-7-10-5-5--5-5----------------------| X2
A|-3-5-8--3-3--3-3----------------------|
D|--------------------------------------|

e|--------------------------------------|
B|--------------------------------------|
G|--------------------------------------|
D|-5-7-10-7-7--7-7----------------------| X2
A|-3-5-8--5-5--5-5----------------------|
D|--------------------------------------|

e|--------------------------------------|
B|--------------------------------------|
G|--------------------------------------|
D|-5-7-10-5-5--5-5----------------------| X2
A|-3-5-8--3-3--3-3----------------------|
D|--------------------------------------|

e|--------------------------------------|
B|--------------------------------------|
G|--------------------------------------|x2
D|-5-3----5-3---------------------------|
A|----5-------5-----0-------------------|
D|------0-------0-x-0-------------------|

e|---------------------------------------|
B|---------------------------------------|
G|---------------------------------------|x2
D|-------3-------3------3----------------|
A|-0-3-5---0-3-5---0-3-------------------|
D|---------------------------------------|


e|--------------------------------------|
B|--------------------------------------|
G|--------------------------------------|x2
D|-5-3----5-3---------------------------|
A|----5-------5-----0-------------------|
D|------0-------0-x-0-------------------|




e|---------------------------------------|
B|---------------------------------------|
G|---------------------------------------|x2
D|-------3-------3------3----------------|
A|-0-3-5---0-3-5---0-3-------------------|
D|---------------------------------------|


e|---------------------------------------|
B|---------------------------------------|
G|---------------------------------------|
D|-3-------------------------------------|
A|-1--5----------------------------------|
D|----5----------------------------------|


YOU CAN FIGURE OUT THE REST OF THE SONG

PRESOLO 

e|---------------------------------------|
B|---------------------------------------|
G|---------------------------------------|
D|---------------------------------------|X2
A|-0-0--0-0-0--0-0----------------------|
D|-0-0--0-0-0--0-0----------------------|
[ Tab from: http://www.guitaretab.com/b/burn-halo/175092.html ]
e|---------------------------------------|
B|---------------------------------------|
G|---------------------------------------|
D|---------------------------------------|
A|-8-8--8-8-8--8-8----------------------|
D|-8-8--8-8-8--8-8----------------------|

e|---------------------------------------|
B|---------------------------------------|
G|---------------------------------------|
D|---------------------------------------|
A|-5-5--5-5-5--5-5----------------------|
D|-5-5--5-5-5--5-5----------------------|

e|---------------------------------------|
B|---------------------------------------|
G|---------------------------------------|
D|---------------------------------------|
A|-0-0--0-0-0--0-0----------------------|
D|-0-0--0-0-0--0-0----------------------|

e|---------------------------------------|
B|---------------------------------------|
G|---------------------------------------|
D|---------------------------------------|
A|-3-3--3-3-3--3-3----------------------|
D|-3-3--3-3-3--3-3----------------------|

e|---------------------------------------|
B|---------------------------------------|
G|---------------------------------------|
D|---------------------------------------|
A|-8-8--8-8-8--8-8----------------------|
D|-8-8--8-8-8--8-8----------------------|


e|---------------------------------------|
B|---------------------------------------|
G|---------------------------------------|
D|---------------------------------------|
A|-5-5--5-5-5--5-5----------------------|
D|-5-5--5-5-5--5-5----------------------|

SOLO

MAKE THE 13 SOUND LIKE A 15 BENDING IT

e|-17--13-12-----------------------------|
B|----------13----13^15------------------|
G|-------------12------------------------|
D|---------------------------------------|
A|---------------------------------------|
D|---------------------------------------|

e|---------------------------------------|
B|-13-13-15-18-17-17-18-20---------------|
G|---------------------------------------|
D|---------------------------------------|
A|---------------------------------------|
D|---------------------------------------|

e|-15-17----13----15-17---13----13----15-17--|
B|-------15----15------15-----15---15------15|
G|-------------------------------------------|
D|-------------------------------------------|
A|-------------------------------------------|
D|-------------------------------------------|

e|---13-12-----12-13-15------------------|
B|----------13----------13---------------|
G|---------------------------------------|
D|---------------------------------------|
A|---------------------------------------|
D|---------------------------------------|

THIS PART IS SLIDES

e|---------------------------------------|
B|-13-13-13-13-13-10-10-8-8-6-6-5-1-1-3-3|
G|---------------------------------------|
D|---------------------------------------|
A|---------------------------------------|
D|---------------------------------------|


THE REST OF THE SONG IS SELF EXPLANATORY 





| x  Mute note
===============================================================================
Related for Save Me tab