Song name
# A B C D E F G H I J K L M N O P Q R S T U V W X Y Z

Burn Halo - Save Me tab

This might not be completely accurate but its better than the other one. Its my first
so hopefully it turns out ok.

E ---12br-------------------------------------13---------------------------|
B ----------16/14---14br---12~~~~-----15--15------17~~~~-------------------|
G -------------------------------------------------------------------------|
D -------------------------------------------------------------------------|
A -------------------------------------------------------------------------|
E -------------------------------------------------------------------------|


E ------------15-15-----15-15----17/19--------------17/19-----------------|
B ---15h17-----------15-------15-------15~~~~----15-------17--20~---------|
G ------------------------------------------------------------------------|
D ------------------------------------------------------------------------|
A ------------------------------------------------------------------------|
E ------------------------------------------------------------------------|
On the last note for this riff, it sounds better to bend the 20 about a quarter step and 
mute it

E ------17/19------------------/12br---------------13b~~~~----------------|
B --15---------15---15-15~~~----------16/14--14br-------------------------|
G ------------------------------------------------------------------------|
D ------------------------------------------------------------------------|
A ------------------------------------------------------------------------|
E ------------------------------------------------------------------------|

E ------------------------------------------------------------------------|
B ------------------------------------------------------------------------|
G --14-14-------12-12-------10-10-----8-8---5-----------------------------|
D --------12-12-------10-10-------8-8-----6-5-----------------------------|
A ------------------------------------------------------------------------|
E ------------------------------------------------------------------------|
Wasn't too sure about this part... you might have to play around with it and get what 
want
Tap to rate this tab
 
# A B C D E F G H I J K L M N O P Q R S T U V W X Y Z