Song name
# A B C D E F G H I J K L M N O P Q R S T U V W X Y Z

Burn Halo - Saloon Song tab

This is the solo part for Saloon Song by Burn Halo
I got this 100% by ear so Please Correct me if i made a mistake
and Please Rate Thanks

E--------------------------------------------------------------------|
B-12----12-----------------------------------------------------------|
G----11~--11~2/9h11p9---9h11p9~9h11-9/8h9p8--8-----------------------|
D---------------------11-------------------11------------------------|
A--------------------------------------------------------------------|
D--------------------------------------------------------------------|

E--------------------------------------------------------------------|
B-12----12-----------------------------------------------------------|
G----11~--11~2/9h11p9---9h11p9~9h11-9/8h9p8--8-----------------------|
D---------------------11-------------------11------------------------|
A--------------------------------------------------------------------|
D--------------------------------------------------------------------|

E-------------------------------------12/14\12-12/17-16-17-16h17\----|
B--------------------9-10-12--12-10-9--------------------------------|
G----------9h11-11p9~------------------------------------------------|
D------9h11----------------------------------------------------------|
A--9h11--------------------------------------------------------------|
D--------------------------------------------------------------------|

E-12------------------------------------------------------------------|
B---12----------------------------------------------------------------|
G-----14p13-13h14\11--9-9h11/13-11\9h11p9\8h9-------------------------|
D---------------------------------------------------------------------|
A---------------------------------------------------------------------|
D---------------------------------------------------------------------|

Thats it, enjoy Playing it :)
Tap to rate this tab
 
# A B C D E F G H I J K L M N O P Q R S T U V W X Y Z