Song name
# A B C D E F G H I J K L M N O P Q R S T U V W X Y Z

Burn In Silence - The Age In Which Tomorrow Brings tab

Band:  Burn In Silence
Album: Angel Maker
Song:  The Age In Which Tomorrow Brings

Copyright (c)  (Prosthetic Records) (2006)
Version 1.0 - (2007-08-13)

Transcribed By: (Martin Thollander)
Email:          (midwinter.gates@gmail.com)


.  - palm mute           /  - slide up to
\  - slide down to       ~  - vibrato
h  - hammer on           b  - Bend
p  - pull off            Suffixes for bend
t  - tap                 f  - full bend    h - half bend
ph - pinched harmonic    q  - quarter bend t - tap bend
*  - see comment         ^  - Hold bend    r release bend
x  - Stuccatto           ~  - vibrato bend
,  - slight palm mute    () - ghost note, sustained note
"  - tremolo note        <> - Trill

Tuning D G C F A D

Piano Intro (in E Standard) ALL NOTES RING OUT (Thanks to jogi)


|--------------0-----------------------0------------|
|-----------------4-----------------------4---------|
|--------------------4-----------------------4------|
|--------2--------------6--------2--------------6---|
|-----2-----2-----------------2-----2---------------|
|--0-----------------------0------------------------|

|--------------------------------------0-----------|
|--------------7--------------------------4--------|
|-----------------8--------------------------4-----|
|--------6-----------9-----------4--------------4--|
|-----6-----6-----------6-----4-----4--------------|
|--4-----------------------2-----------------------|


Verse riff X3


|-------------------------||--------------------------|
|-------------------------||--------------------------|
|-------------------------||--------------------------|
|-------------------------||--------------------------|
|--4--4--4----4-4-4--4----||--4-4-4--4----4-4-4--4----|
|--2--2--2----2-2-2--2----||--2-2-2--2----2-2-2--2----|
   .  .       . . .           . . .  .    . . .           

|-------------------------||-------------------------|
|-------------------------||-------------------------|
|-------------------------||-------------------------|
|-------------------------||-------------------------|
|--8--8--8----8-8-8--8----||--6--6--6----6-6-6--6----|
|--6--6--6----6-6-6--6----||--4--4--4----4-4-4--4----|
   .  .       . . .           .  .       . . . 

4th time play this

--------------------------|--------------------------|
|-------------------------|--------------------------|
|-------------------------|--------------------------|
|-------------------------|--------------------------|
|--4--4--4----4-4-4--4----|--4-4-4--4----4-4-4--4----|
|--2--2--2----2-2-2--2----|--2-2-2--2----2-2-2--2----|
   .  .       . . .          . . .  .    . . .           

|-------------------------|--------------------------|
|-------------------------|--------------------------|
|-------------------------|--------------------------|
|-------------------------|--------------------------|
|--8--8--8----8-8-8--8----|--6--6--6----6-6-6-6-6----|
|--6--6--6----6-6-6--6----|--4--4--4----4-4-4-4-4----|
   .  .       . . .          .  .  .    . . . . .


Lead part under Verse riff X 2 (Comes in after rhythm riff played 2 times)

*ALL NOTES TREMOLO PICKED*

|----------------------------------|----------------------------------|
|----------------------------------|----------------------------------|
|--------------6-6-6-6-6-6-5-5-5-5-|--8-8-8-8-8-8-8-8-8-8-8-8-8-8-8-8-|
|--4-4-4-4-4-4---------------------|----------------------------------|
|----------------------------------|----------------------------------|
|----------------------------------|----------------------------------|


|----------------------------------|----------------------------------|
|----------------------------------|----------------------------------|
|--------------6-6-6-6-6-6-5-5-5-5-|----------------------------------|
|--4-4-4-4-4-4---------------------|--6-6-6-6-6-6-6-6-6-6-6-6-6-6-6-6-|
|----------------------------------|----------------------------------|
|----------------------------------|----------------------------------|

|----------------------------------|----------------------------------|
|----------------------------------|----------------------------------|
|--------------6-6-6-6-6-6-5-5-5-5-|--8-8-8-8-8-8-8-8-8-8-8-8-8-8-8-8-|
|--4-4-4-4-4-4---------------------|----------------------------------|
|----------------------------------|----------------------------------|
|----------------------------------|----------------------------------|

 
|----------------------------------|----------------------------------|
|--7-7-7-7-7-7-7-7-7-7-7-7-6-6-6-6-|--4-4-4-4-4-4-4-4-----------------|
|----------------------------------|----------------------------------|
|----------------------------------|----------------------------------|
|----------------------------------|-------------------6-6-6-6-6------|
|----------------------------------|-------------------4-4-4-4-4------|
                                                       . . . . .

Bridge riff x 2

|-------------------------|----------------------------|
|-------------------------|----------------------------|
|-------------------------|----------------------------|
|-------------------------|----------------------------|
|--4----4-4-4----4-4-4----|--8-8-8--8--8--8-8-8--8--8--|
|--2----2-2-2----2-2-2----|--6-6-6--6--6--6-6-6--6--6--|
   .    . . .    . . .       . . .  .  .  . . .  .  .   


|-------------------------|----------------------------|
|-------------------------|----------------------------|
|-------------------------|----------------------------|
|-------------------------|----------------------------|
|--4----4-4-4----4-4-4----|--6-6-6--6--6--6-6-6--6--6--|
|--2----2-2-2----2-2-2----|--4-4-4--4--4--4-4-4--4--4--|
   .    . . .    . . .       . . .  .  .  . . .  .  .

Pre-chorus riff x 2 (Ring out chords)

|--------------------|------------------|
|--------------------|------------------|
|--------------------|------------------|
|--------------------|------------------|
|--4------6----------|------------------|
|--2------4----------|------------------|


|--------------------|------------------|
|--------------------|------------------|
|--------------------|------------------|
|--------------------|------------------|
|--4------8----------|------------------|
|--2------6----------|------------------|


Chorus riff x 4


|-------------------------||--------------------------|
|-------------------------||--------------------------|
|-------------------------||--------------------------|
|-------------------------||--------------------------|
|--4--4--4----4-4-4--4----||--4-4-4--4----4-4-4--4----|
|--2--2--2----2-2-2--2----||--2-2-2--2----2-2-2--2----|
   .  .       . . .           . . .  .    . . .           

|-------------------------||-------------------------|
|-------------------------||-------------------------|
|-------------------------||-------------------------|
|-------------------------||-------------------------|
|--8--8--8----8-8-8--8----||--6--6--6----6-6-6--6----|
|--6--6--6----6-6-6--6----||--4--4--4----4-4-4--4----|
   .  .       . . .           .  .       . . .
  

Lead under chorus riff x 2 (Lead starts immediately)

*ALL NOTES TREMOLO PICKED*

|----------------------------------|----------------------------------|
|----------------------------------|----------------------------------|
|--------------6-6-6-6-6-6-5-5-5-5-|--8-8-8-8-8-8-------------5-5-5-5-|
|--4-4-4-4-4-4---------------------|--------------6-6-6-6-6-6---------|
|----------------------------------|----------------------------------|
|----------------------------------|----------------------------------|

|----------------------------------||----------------------------------|
|----------------------------------||----------------------------------|
|--------------6-6-6-6-6-6-5-5-5-5-||----------------------------------|
|--4-4-4-4-4-4---------------------||--6-6-6-6-6-6-6-6-6-6-6-6-6-6-6-6-|
|----------------------------------||----------------------------------|
|----------------------------------||----------------------------------|

|----------------------------------|----------------------------------|
|----------------------------------|----------------------------------|
|--------------6-6-6-6-6-6-5-5-5-5-|--8-8-8-8-8-8-------------5-5-5-5-|
|--4-4-4-4-4-4---------------------|--------------6-6-6-6-6-6---------|
|----------------------------------|----------------------------------|
|----------------------------------|----------------------------------|

|----------------------------------||----------------------------------|
|--7-7-7-7-7-7-6-6-6-6-6-6---------||--9-9-9-9-9-9-7-7-7-7-7-7-6-6-6-6-|
|--------------------------6-6-6-6-||----------------------------------|
|----------------------------------||----------------------------------|
|----------------------------------||----------------------------------|
|----------------------------------||----------------------------------|

Breakdown riff 
                           

|-------------------------|
|-------------------------|
|-------------------------|
|-------------------------|
|--3--3--3--3--3--3--3--3-|
|--1--1--1--1--1--1--1--1-|
   .  .  .  .  .  .  .  .  


|---------------------------|-------------------------|
|---------------------------|-------------------------|
|---------------------------|-------------------------|
|---------------------------|-------------------------|
|--4--3--3--3--4--3--3--4---|--4--4-4-4-4-4--4--4--4--|
|--2--1--1--1--2--1--1--2---|--2--2-2-2-2-2--2--2--2--|
         .  .        .         .  . . . . .  .  .  . 

|----------------------------|--------------------------|
|----------------------------|--------------------------|
|----------------------------|--------------------------|
|----------------------------|--------------------------|
|--4--3--3--3--4--3--3--8----|--8--8--8--8--7--7--7--7--|
|--2--1--1--1--2--1--1--6----|--6--6--6--6--8--8--8--8--|
         .  .        .             


Breakdown 2 riff X2

|---------------------------|---------------------------|
|---------------------------|---------------------------|
|---------------------------|---------------------------|
|---------------------------|---------------------------|
|--4----4----4-4-4-4-4-4-4--|--4-4-4----4-4-4-4-4-4-4-4-|
|--2----2----2-2-2-2-2-2-2--|--2-2-2----2-2-2-2-2-2-2-2-|
   .    .    . . . . . . .     . . .    . . . . . . . . 


|----------------------------------|----------------------------------|
|----------------------------------|----------------------------------|
|----------------------------------|----------------------------------|
|----------------------------------|----------------------------------|
|--8-8-8-8-8-8-8-8-8-8-8-8-8-8-8-8-|--6-6-6-6-6-6-6-6-6-6-6-6-6-6-6-6-|
|--6-6-6-6-6-6-6-6-6-6-6-6-6-6-6-6-|--4-4-4-4-4-4-4-4-4-4-4-4-4-4-4-4-|
   . . . . . . . . . . . . . . . .    . . . . . . . . . . . . . . . . 



Chorus riff x 4


|-------------------------||--------------------------|
|-------------------------||--------------------------|
|-------------------------||--------------------------|
|-------------------------||--------------------------|
|--4--4--4----4-4-4--4----||--4-4-4--4----4-4-4--4----|
|--2--2--2----2-2-2--2----||--2-2-2--2----2-2-2--2----|
   .  .       . . .           . . .  .    . . .           

|-------------------------||-------------------------|
|-------------------------||-------------------------|
|-------------------------||-------------------------|
|-------------------------||-------------------------|
|--8--8--8----8-8-8--8----||--6--6--6----6-6-6--6----|
|--6--6--6----6-6-6--6----||--4--4--4----4-4-4--4----|
   .  .       . . .           .  .       . . .
  

Lead under chorus riff x 2 (Lead starts immediately)

*ALL NOTES TREMOLO PICKED*

|----------------------------------|----------------------------------|
|----------------------------------|----------------------------------|
|--------------6-6-6-6-6-6-5-5-5-5-|--8-8-8-8-8-8-------------5-5-5-5-|
|--4-4-4-4-4-4---------------------|--------------6-6-6-6-6-6---------|
|----------------------------------|----------------------------------|
|----------------------------------|----------------------------------|

|----------------------------------||----------------------------------|
|----------------------------------||----------------------------------|
|--------------6-6-6-6-6-6-5-5-5-5-||----------------------------------|
|--4-4-4-4-4-4---------------------||--6-6-6-6-6-6-6-6-6-6-6-6-6-6-6-6-|
|----------------------------------||----------------------------------|
|----------------------------------||----------------------------------|

|----------------------------------|----------------------------------|
|----------------------------------|----------------------------------|
|--------------6-6-6-6-6-6-5-5-5-5-|--8-8-8-8-8-8-------------5-5-5-5-|
|--4-4-4-4-4-4---------------------|--------------6-6-6-6-6-6---------|
|----------------------------------|----------------------------------|
|----------------------------------|----------------------------------|

|----------------------------------||----------------------------------|
|--7-7-7-7-7-7-6-6-6-6-6-6---------||--9-9-9-9-9-9-7-7-7-7-7-7-6-6-6-6-|
|--------------------------6-6-6-6-||----------------------------------|
|----------------------------------||----------------------------------|
|----------------------------------||----------------------------------|
|----------------------------------||----------------------------------|


Bridge riff (Ring out chords)

|--------------------|------------------|
|--------------------|------------------|
|--------------------|------------------|
|--------------------|------------------|
|--4--3--4-----------|------------------|
|--2--1--2-----------|------------------|


|--------------------|------------------|
|--------------------|------------------|
|--------------------|------------------|
|--------------------|------------------|
|--4--3--6-----------|------------------|
|--2--1--4-----------|------------------|  

Breakdown riff (fucked up rhythm, listen to song)

First time play this

Guitar 1

|------------------------------------|------------------------------------|
|------------------------------------|------------------------------------|
|------------------------------------|------------------------------------|
|------------------------------------|------------------------------------| 
|--4-4-4-4-4----4----4--4----4--3----|--8-8-8-8-8----8----8--8----4--3----|
|--2-2-2-2-2----2----2--2----2--1----|--6-6-6-6-6----6----6--6----2--1----|
   . . . . .    .    .  .    .  .       . . . . .    .    .  .    .  .

Guitar 2

|------------------------------------|------------------------------------|
|------------------------------------|------------------------------------|
|------------------------------------|------------------------------------|
|------------------------------------|------------------------------------|
|--4-4-4-4-4----4----4--4----4--3----|--8---------------------------------|
|--2-2-2-2-2----2----2--2----2--1----|--6---------------------------------|
   . . . .                                              

Second time play this

Guitar 1

|------------------------------------|------------------------------------|
|------------------------------------|------------------------------------|
|------------------------------------|------------------------------------|
|------------------------------------|------------------------------------|
|--4-4-4-4-4----4----4--4----4--3----|--8-8-8-8-8----8----8--8----4--3----|
|--2-2-2-2-2----2----2--2----2--1----|--6-6-6-6-6----6----6--6----2--1----|
   . . . . .    .    .  .    .  .       . . . . .    .    .  .    .  .

Guitar 2

|------------------------------------|------------------------------------|
|------------------------------------|------------------------------------|
|------------------------------------|------------------------------------|
|------------------------------------|------------------------------------| 
|--4--3--4---------------------------|--4--3--8---------------------------|
|--2--1--2---------------------------|--2--1--6---------------------------|


Third time play this

Guitar 1


|------------------------------------|------------------------------------|
|------------------------------------|------------------------------------|
|------------------------------------|------------------------------------|
|------------------------------------|------------------------------------| 
|--4--3--4--4--4----4--4-----4--4----|--4--3--8--8--8----8--8-----8--8----|
|--2--1--2--2--2----2--2-----2--2----|--2--1--6--6--6----6--6-----6--6----|
         .  .  .    .  .     .  .             .  .  .    .  .     .  .

Guitar 2


|------------------------------------|------------------------------------|
|------------------------------------|------------------------------------|
|------------------------------------|------------------------------------|
|------------------------------------|------------------------------------| 
|--4--3--4---------------------------|--4--3--8---------------------------|
|--2--1--2---------------------------|--2--1--6---------------------------|


Fourth and last time play this

Guitar 1


|------------------------------------|----------------------------------------|
|------------------------------------|----------------------------------------|
|------------------------------------|----------------------------------------|
|------------------------------------|----------------------------------------| 
|--4--3--4--4--4----4--4-----4--4----|--4--3--8--8--8----8--8-----8-8-8-8-8-8-|
|--2--1--2--2--2----2--2-----2--2----|--2--1--6--6--6----6--6-----6-6-6-6-6-6-|
         .  .  .    .  .     .  .             .  .  .    .  .     . . . . . .

Guitar 2


|------------------------------------|----------------------------------------|
|------------------------------------|----------------------------------------|
|------------------------------------|----------------------------------------|
|------------------------------------|----------------------------------------| 
|--4--3--4---------------------------|--4--3--8-------------------8-8-8-8-8-8-|
|--2--1--2---------------------------|--2--1--6-------------------6-6-6-6-6-6-|
                                                                  . . . . . .

The riffs are in the correct order they are played in the song. 

This tab should be 95% correct. 

Email corrections and I'll update ASAP.


Tap to rate this tab
# A B C D E F G H I J K L M N O P Q R S T U V W X Y Z