Song name
# A B C D E F G H I J K L M N O P Q R S T U V W X Y Z

Burn The Ballroom - Second Hand Heart tab

Burn the Ballroom
Second Hand Heart

Capo 1
e|---0-0-0-----0-2-0-0------------------------------------------------------|
B|--0-0-0-0---0-0---0-------------------------------------------------------|
G|--------------------------------------------------------------------------|
D|-2---------2--------------------------------------------------------------|
A|--------------------------------------------------------------------------|
E|--------------------------------------------------------------------------|

e|--------------------------------------------------------------------------|
B|--same---same-------------------------------------------------------------|
G|--------------------------------------------------------------------------|
D|--------------------------------------------------------------------------|
A|-0------2-----------------------------------------------------------------|
E|--------------------------------------------------------------------------|
Tap to rate this tab
 
# A B C D E F G H I J K L M N O P Q R S T U V W X Y Z