Burn The Ballroom - Country Girls tab

Country girls is in D major

Intro
e-------------------------------------------------------------|
B---7----------------10-------8-------7-----------------------|
G-----7---6-7-9--------9-------9-------8----------------------|
D-0-----0---------0--------0-------0--------------------------|
A-------------------------------------------------------------|
E-------------------------------------------------------------|

Then: Bm G D A

Verse: D F#m G
e----------------|
B----------------|
G----------------|
D----------------|
A----------------|
E-3-2-0----------|
Pre-Chorus: A Bm A D G Bm A G A
Chorus: D F# G (x2) Bm A G A (back into int

****Song tabbed by guitar player of Burn The Ballroom, Alan****
Tap to rate this tab
 
# A B C D E F G H I J K L M N O P Q R S T U V W X Y Z