Song name
# A B C D E F G H I J K L M N O P Q R S T U V W X Y Z

Burn The Priest - Duane tab

Ok this is my first every tab. Im a huge fan of burn the priest/lamb of god. Been 
less than a year (self taught) so comment please if You think there are any mistakes but it 
good to me on my shitty guitar. If you paste on another website please give me credit.


E|----------------------|
B|----------------------|
G|----------------------|  X4
D|----------------------|
A|----------------------|
D|-22222333336666655555-|

E|----------------------------------------------------------------|
B|----------------------------------------------------------------|
G|----------------------------------------------------------------|
D|--------------0~-------------------0~-------------0~---------0~-|  X2
A|-043-032-043-00~4-3-0-4-3-0-4-3-0-00~043-032-043-00~4332433200~-|
D|-043-032-043-00~4-3-0-4-3-0-4-3-0-00~043-032-043-00~4332433200~-|
   ... ... ...    . . . . . . . . .    ... ... ...    .........

E|---------|
B|---------|
G|---------|
D|---------|  X8
A|32-32-35-|
D|3--3--3--|
  .  .  .

E|----------------------------------------------------------------|
B|----------------------------------------------------------------|
G|----------------------------------------------------------------|
D|--------------0~-------------------0~-------------0~---------0~-|  X2
A|-043-032-043-00~4-3-0-4-3-0-4-3-0-00~043-032-043-00~4332433200~-|
D-|043-032-043-00~4-3-0-4-3-0-4-3-0-00~043-032-043-00~4332433200~-|
   ... ... ...    . . . . . . . . .    ... ... ...    .........

E|---------|
B|---------|
G|---------|
D|---------|  X8
A|32-32-35-|
D|3--3--3--|
  .  .  .

E|--|--------------------|
B|--|--------------------|
G|--|--------------------|
D|--|--------------------|  X4
A|43|-43134-430430430340-|
D|43|-43134-430430430340-|
  ..  ..... ............
       Then
E|------------------------------------|
B|------------------------------------|
G|------------------------------------|
D|-0~---1~---0---1~---0---1~---0---1~-|
A|-0~---1~---0---1~---0---1~---0---1~-|
D|-0~---1~---0---1~---0---1~---0---1~-|
             .        .        .

E|------------------|
B|------------------|
G|------------------|
D|------------------|  X4
A|-4300430023003400-|
D|-4300430023003400-|
   ........

E|--------------|                |-----|
B|--------------|                |-----|
G|--------------|                |-----|
D|--------------|   X4   End on  |-----|
A|---------4--4-|                |-0-0-|
D|-333333334004-|                |-0-0-|
   ........ ..                     . .


And thats it !.. listen to the song for the rhythem and such, Enjoy!
(.)- Mute
(~)- Let ring
Tap to rate this tab
# A B C D E F G H I J K L M N O P Q R S T U V W X Y Z