Song name
# A B C D E F G H I J K L M N O P Q R S T U V W X Y Z

Burn The Priest - Bloodletting tab

Song: Bloodletting
Artist: Burn the Priest (Lamb of God)
Album: Burn the Priest

I didn't note the palm muting as it is recurrent throughout the majority of the song. 

c# |-------------------------------------------------------------------|
A# |-------------------------------------------------------------------|
F# |-------------------------------------------------------------------|
C# |-------------------------------------------------------------------|
G# |-------------------------------------------------------------------|
C# |-5-5-5-5-5-5-5-5-4-4-4-4-4-4-4-4-4-3-3-3-3-3-3-3-3-3-3-3-3-3-3-3-3-|

c# |-------------------------------------------------------------------|
A# |-------------------------------------------------------------------|
F# |-------------------------------------------------------------------|
C# |-------------------------------------------------------------------|
G# |-------------------------------------------------------------------|
C# |-5-5-5-5-5-5-5-5-4-4-4-4-4-4-4-4-4-3-3-3-3-3-3-3-3-3-3-3-3-3-3-3-3-|

c# |---------------------------------|
A# |---------------------------------|
F# |---------------------------------|
C# |---------------------------------|
G# |---------------------------------|
C# |-1-0-0-3-0-0-1-3-565-3-0-1-0-1-8-|

c# |---------------------------------|
A# |---------------------------------|
F# |---------------------------------|                                
C# |---------------------------------|
G# |---------------------------------|
C# |-1-0-0-3-0-0-1-3-565-3-0-1-0-1-8-|

c# |---------------------------------|
A# |---------------------------------|
F# |---------------------------------|
C# |---------------------------------|
G# |---------------------------------|
C# |-1-0-0-3-0-0-1-3-565-3-0-1-0-1-8-|

c# |---------------------------------|
A# |---------------------------------|
F# |---------------------------------|
C# |---------------------------------|
G# |---------------------------------|
C# |-1-0-0-3-0-0-1-3-565-3-0-1-0-1-8-|


Play this section twice.


c# |---------------------------------|
A# |---------------------------------|
F# |---------------------------------|
C# |---------------------------------|
G# |---------------------------------|
C# |-1-0-0-3-0-0-1-3-565-3-0-1-0-1-8-|

c# |---------------------------------|
A# |---------------------------------|
F# |---------------------------------|
C# |---------------------------------|
G# |---------------------------------|
C# |-1-0-0-3-0-0-1-3-565-3-0-1-0-1-3-|

c# |---------------------------------|
A# |---------------------------------|
F# |---------------------------------|
C# |---------------------------------|
G# |---------------------------------|
C# |-1-0-0-3-0-0-1-3-565-3-0-1-0-1-8-|

c# |---------------------------------|
A# |---------------------------------|
F# |---------------------------------|
C# |---------------------------------|
G# |---------------------------------|
C# |-1-0-0-3-0-4-0-3-0-3-2-1-3-2-0-1-|


Play this section twice. 


c# |---------------------------------|
A# |---------------------------------|
F# |---------------------------------|
C# |---------------------------------|
G# |---------------------------------|
C# |-1-0-0-3-0-4-0-3-0-4-3-1-3-1-0-1-|

c# |---------------------------------|
A# |---------------------------------|
F# |---------------------------------|
C# |---------------------------------|
G# |---------------------------------|
C# |-1-0-0-3-0-4-0-3-0-4-3-1-3-1-0-1-|

c# |---------------------------------|
A# |---------------------------------|
F# |---------------------------------|
C# |---------------------------------|
G# |---------------------------------|
C# |-1-0-0-3-0-4-0-3-0-4-3-1-3-1-0-1-|

c# |---------------------------------|
A# |---------------------------------|
F# |---------------------------------|
C# |---------------------------------|
G# |---------------------------------|
C# |-1-0-0-3-0-4-0-3-0-4-3-1-3-1-0-1-|


Play this section twice. 


c# |---------------------------------|
A# |---------------------------------|
F# |---------------------------------|
C# |---------------------------------|
G# |---------------------------------|
C# |-1-0-0-3-0-4-0-3-0-4-3-1-3-1-0-1-|

c# |---------------------------------|
A# |---------------------------------|
F# |---------------------------------|
C# |---------------------------------|    (it's hard to show the pattern of this 
G# |---------------------------------|     riff, so listen closely to the track)
C# |-000-0-0---0---0---0-0-0-000-0-0-|


c# |---------------------------------|
A# |---------------------------------|
F# |---------------------------------|
C# |---------------------------------|
G# |---------------------------------|
C# |-000-0-0---0---0---0-0-0-000-0-0-|


c# |---------------------------------|
A# |---------------------------------|
F# |---------------------------------|
C# |---------------------------------|
G# |---------------------------------|
C# |-000-0-0---0---0---0-0-0-000-0-0-|


Play this section once. 


c# |---------------------------------|
A# |---------------------------------|
F# |---------------------------------|
C# |---------------------------------|
G# |---------------------------------|
C# |-000-0-0---0---0---0-0-0-000-0-0-|

Play this riff four times.


c# |---------------------------------|
A# |---------------------------------|
F# |---------------------------------|
C# |---------------------------------|
G# |-------8-7-----------------------|
C# |-0-1-0-----0-0-1-000-0-0-000-0-0-|

Play this riff thirteen times. 

c# |----------------------------------|
A# |----------------------------------|
F# |----------------------------------|
C# |----------------------------------|
G# |----------------------------------|
C# |-3-2-1-0-8-3-2-1-8-2-1-10-8-1-0-1-|

c# |---------------------------------|
A# |---------------------------------|
F# |---------------------------------|
C# |---------------------------------|
G# |---------------------------------|
C# |-0-0-0-0-0-0-0-0-0-0-0-0-0-0-0-0-|

Play this section three times.

c# |----------------------------------|
A# |----------------------------------|
F# |----------------------------------|
C# |----------------------------------|
G# |----------------------------------|
C# |-3-2-1-0-8-3-2-1-8-2-1-10-8-1-0-1-|

c# |----------------------------------|
A# |----------------------------------|
F# |----------------------------------|
C# |-0m-------------------------------|
G# |-0m-------------------------------|
C# |-0m-------------------------------|

v = vibrato
m = play note then mute
x = dead note
b = bend 
* = let ring
pm* = palm mute
br = bend and release
Tap to rate this tab
 
# A B C D E F G H I J K L M N O P Q R S T U V W X Y Z