Song name
# A B C D E F G H I J K L M N O P Q R S T U V W X Y Z

Burn The Priest - Lies Of Autumn tab

I think the tuning might be a quarter of a step sharp of C. Not completely sure. 
But here is the intro. Planning on adding to it later

^ = (Palm Mute)

e|------|    |--------------------------------------|
B|------|    |--------------------------------------|
G|------|    |--------------------------------------|
D|------|    |--------------------------------------|
A|--0-0-|    |6/5--0--6/5-3--3\5-3--0--6/5----33-0--|
D|--0-0-|    |6/5--0--6/5-3--3\5-3--0--6/5----33-0--|  x6
    ^ ^            ^         ^                ^^
D#|----------------|
A#|----------------|
F#|----------------|
C#|----------------|
G#|----3~----3---8^|
C#|0-56----56--56--| 

D#|----------------|
A#|----------------|
F#|----------------|
C#|----------------|
G#|----3~--5635----|
C#|0-56----5635----|
           ^^^^
D#|----------------|
A#|----------------|
F#|----------------|
C#|----------------|
G#|----3~----3~5835|
C#|0-56----56------|

D#|--------------------|
A#|--------------------|
F#|--------------------|
C#|--------------------|
G#|----3---0560----0330|
C#|0-563---0560----0330|
           ^^^^    ^^^^ 
Tap to rate this tab
 
# A B C D E F G H I J K L M N O P Q R S T U V W X Y Z